3 Doors Down - Be Like That Chords & Tabs

 

Be Like That Chords & Tabs

3 Doors Down Chords & Tabs

Version: 2 Type: Bass Tab 0 ratings
1 star 2 stars 3 stars 4 stars 5 stars
comments

Be Like That Bass Tab

This is my first tab, so take it easy on me, and let me know how 
this one works. Thanks
RuPimpen@insightbb.com

Intro:
E------------------------/
A--Rest For 12 Measures--/
D------------------------/
G------------------------/
[ Tab from: http://www.guitartabs.cc/tabs/0-9/3_doors_down/be_like_that_btab_ver_2.html ]
After the rest go into this,
E-----/-----/-----/-----/
A-----/-----/-----/-----/
D-----/--5--/--7--/--3--/
G--3--/-----/-----/-----/
Repeat this line 8 times. 
U can also play this another way, if ur a beginner.
E-----/-----/-----/-----/
A-----/--0--/--2--/-----/
D-----/-----/-----/--3--/
G--3--/-----/-----/-----/
This is for the beginners.



Then play
E-----/-----/-----/-----/
A-----/-----/-----/-----/
D-----/--3--/-----/--3--/
G--5--/-----/--3--/-----/
This is what they are playing when they arent playing the main lines
above.

Here u go, have fun.
Comments