3 Doors Down - Away From The Sun Chords & Tabs


Away From The Sun Chords & Tabs

3 Doors Down Chords & Tabs

Version: 6 Type: Tab 0 ratings
1 star 2 stars 3 stars 4 stars 5 stars

Away From The Sun Tab

Artist:          3 Doors Down
Title :          Away From The Sun
Album :          Away From The Sun
Transcribed by:  Shaun Barnes
Email:           Shaunie914@aol.com

Intro and Verse

e ---------------------------------------------------------------------0----
B ----1-----1-----1----1-----0h1---1-----1-----1-----1----1-----0h1---------
G ------2-----2----------0-------0---------0-----0----------0-------0-------
D --3-----3-----3----2-----2-----------------2-----2----------2-------------
A -------------------------------------3----------------2-------------------
E --------------------------------------------------------------------------
[ Tab from: http://www.guitartabs.cc/tabs/0-9/3_doors_down/away_from_the_sun_tab_ver_6.html ]
e --------------------------------------------------------------------------
B ----1-----1-----1----1-----0h1---1----3---1---0--------3---1---0----------
G ------2-----2----------0-------0--------0---0---0--------0---0---0--------
D --3-----3-----3----2-----2------------------------0----------------0------
A --------------------------------------------------------------------------
E ------------------------------------3----------------3--------------------

Here is the finger positioning I use to pick this song.  Just listen to the 
song and you'll figure it out.  I don't know the names of some of the chords
but I found that holding these is easiest for me to play the song. 

C  x32010