3 Doors Down - Away From The Sun Chords & Tabs

 

Away From The Sun Chords & Tabs

3 Doors Down Chords & Tabs

Version: 3 Type: Tab 1 rating
1 star 2 stars 3 stars 4 stars 5 stars
comments

Away From The Sun Tab

   
Artist: 3 Doors Down
Title: Away from the Sun
Album: Away from the Sun
Tabbed by: Andrew
Tuning: Standard

I'm 90% this tablature is right...all you have to do is figure out 
the right timing.

  Intro/Verse/Outro

        
E\------------------------------------------------0-----------------
B\---1---1---1---1---0/1-----1---1---1---1---1--3------1---1---1----
G\-----------------------0------------------------------------------
D\------------------------------------------------------------------
A\-3---3---3---2---2-------3---3---3---2---2---------3---3---3------
E\------------------------------------------------------------------
[ Tab from: http://www.guitartabs.cc/tabs/0-9/3_doors_down/away_from_the_sun_tab_ver_3.html ]
E\------------------------------------------------------------------
B\---1----0/1--------3--1--0----------3--1--0-----------------------
G\------------0-----------------------------------------------------
D\------------------------------------------------------------------
A\-2---2------------------------------------------------------------
E\---------------3-------------3---3--------------------------------

  Chorus x2

      F    C    F
E\----1----0----1----------------
B\----1----1----1----------------
G\----2----0----2----------------
D\----3----2----3----2-3-5-3-2-0-
A\----3----3----3----------------
E\----1----0----1----------------

  Solo

      F   G   F   G
E\----1---3---1---3--8/10-8-7--------
B\----1---3---1---3--8/10-8-8--------
G\----2---0---2---0------------------
D\----3---0---3---0------------------
A\----3---2---3---2------------------
E\----1---3---1---3------------------


chronological order of track:
Intro/Verse
Chorus
Verse
Chorus
Solo
Verse
Chorus

if you have any corrections or comments email me on
killz4thrillz@hotmail.com
Comments