3 Doors Down - Away From The Sun Chords & Tabs

 

Away From The Sun Chords & Tabs

3 Doors Down Chords & Tabs

Version: 1 Type: Tab 1 rating
1 star 2 stars 3 stars 4 stars 5 stars
comments

Away From The Sun Tab

   
Artist: 3 Doors Down
Title: Away from the Sun
Album: Away from the Sun
Started by: Andrew
Finished by: Matthew "OmnipotentBob" Yauch
Tuning: Standard (EADGBe)

  Intro/Verse (by "Andrew")
        
e|------------------------------------------------0-----------------
B|---1---1---1---1---0/1-----1---1---1---1---1--3------1---1---1----
G|-----------------------0------------------------------------------
D|------------------------------------------------------------------
A|-3---3---3---2---2-------3---3---3---2---2---------3---3---3------
E|------------------------------------------------------------------

e|------------------------------------------------------------------
B|---1----0/1--------3--1--0----------3--1--0-----------------------
G|------------0-----------------------------------------------------
D|------------------------------------------------------------------
A|-2---2------------------------------------------------------------
E|---------------3-------------3---3--------------------------------

Chorus
(Chords by "Andrew")
      F C               F
e|----1-----------------1-----------------
B|----1-----------------1-----------------
G|----2-----0-----0-----2-----------------
D|----3---2-----2-------3----2-3-5-0------
A|----3-3-----2-----3---3--------------3~-
E|----1-----------------1-----------------
[ Tab from: http://www.guitartabs.cc/tabs/0-9/3_doors_down/away_from_the_sun_tab.html ]
      F C               F
e|----1-----------------1-------------
B|----1-----------------1-------------
G|----2-----0-----0-----2-------------
D|----3---2-----2-------3-------------
A|----3-3-----2-----3---3----2-3-5----
E|----1-----------------1----------3~-

Interlude
      Am  C G   F   C G
e|----0---0-3---1---0-3--8/10-10-10\8-8-8/10-------
B|----1---1-3---1---1-3--8/10-10-10\8-8-8/10-------
G|----2---0-0---2---0-0----------------------------
D|----2---2-0---3---2-0----------------------------
A|----0---3-2---3---3-2----------------------------	
E|----------3---1-----3----------------------------

Outro
      Am  C G   F   C G
e|----0---0-3---1---0-3----
B|----1---1-3---1---1-3----
G|----2---0-0---2---0-0----
D|----2---2-0---3---2-0----
A|----0---3-2---3---3-2----
E|----------3---1-----3----

For the interlude and outro:
The A minor chord is played for seven counts, and then the C chord is a transition to the G (played for only 1 count), and then the G gets a full 8 counts, then the F gets 7 counts and the C again gets 1 count.


chronological order of track:
Verse x3
Chorus
Verse x3
Chorus x2
Interlude
Verse x2
Chorus x2
Outro


Comments/questions:
Correcting author (OmnipotentBob): OmnipotentBob666@hotmail.com
Original author (Andrew):  killz4thrillz@hotmail.com
Comments