3 Doors Down - Away From The Sun Chords & Tabs

 

Away From The Sun Chords & Tabs

3 Doors Down Chords & Tabs

Version: 1 Type: Bass Tab 0 ratings
1 star 2 stars 3 stars 4 stars 5 stars
comments

Away From The Sun Bass Tab

Band- 3 Doors Down
Song- Away From The Sun


(0:14) Verse
G:--------------------------------------------------|
D:---3----2-------------3----2----------------------|
A:------------3----2--------------------------------| (2 Times)
E:-------------------------------3------------------|

  (0:43) Chorus
G:---------------------------------------------------|
D:--------------------2-5-0-----------------------5--|
A:----3-3-2---------3--------3-------3-2-------2-3---| (1 Times)
E:-1-1---------1----------------1---------1--------3-|
[ Tab from: http://www.guitartabs.cc/tabs/0-9/3_doors_down/away_from_the_sun_btab.html ]
  (0:59) Verse
G:--------------------------------------------------|
D:---3----2-------------3----2----------------------|
A:------------3----2--------------------------------| (2 Times)
E:-------------------------------3------------------|

  (1:42) Chorus
G:---------------------------------------------------|
D:--------------------2-5-0-----------------------5--|
A:----3-3-2---------3--------3-------3-2-------2-3---| (2 Times)
E:-1-1---------1----------------1---------1--------3-|

  (2:11) Bridge
G:--------------------------------------------------|
D:--------------------------------------------------|
A:-0----0-----2----3-----2--------------------------| (1 Time)
E:------------------------3-------------------------|

ENJOY!!!!
Comments