38th Parallel - Horizons Chords & Tabs

 

Horizons Chords & Tabs

38th Parallel Chords & Tabs

Version: 1 Type: Tab 0 ratings
1 star 2 stars 3 stars 4 stars 5 stars
comments

Horizons Tab

   
                      HORIZONS - Parallel 38th

Tuning: 1/2 Step Down
low to high (Eb Ab Db Gb Bb Eb)

*INTRO/VERSE
Guitar 1 (Mono Delay)

eb-------------------------------------12-10---|
Bb---12---12-10--10-----12-12----12-10-10-10---|
Gb---11---11--9---9h11--11--9h11-11--9--9--9---|
Db---------------------------------------------|
Ab---------------------------------------------|
Eb---------------------------------------------|

*PRE-CHORUS (RAP PART)
(Guitar 1 dist.)
eb-----------------------------------------------------------------|
Bb-----------------------------------------------------------------|
Gb-----------------------------------------------------------------|
Db--9--9--9-9-9--7--7-7-7-7-7----9--9--9-9-9--7--7-7-7-7-7---------|
Ab--9--9--9-9-9--7--7-7-7-7-7----9--9--9-9-9--7--7-7-7-7-7---------|
Eb--7--7--7-7-7--5--5-5-5-5-5----7--7--7-7-7--5--5-5-5-5-5---------|

(Guitar 2 dist.)
eb-----------------------------------------------------------------|
Bb---------------------------7-------------------------------------|
Gb----7-7-7p6--6-----6----6h7------7-7-7p6--6-----6---6h7-6--------|
Db--9--------7---7--7-7--7-------9--------7---7--7-7---------------|
Ab--9----------------------------9---------------------------------|
Eb--7----------------------------7---------------------------------|
[ Tab from: http://www.guitartabs.cc/tabs/0-9/38th_parallel/horizons_tab.html ]
*CHORUS
(Guitars 1 & 2 dist.)
eb--------------------------------------------------------------------|
Bb--------------------------------------------------------------------|
Gb--------------------------------------------------------------------|
Db--5-5-5-5-5-5-5-5-5-5-5-5-5-5-5-5--9-9-9-9-9-9-9-9-9-9-9-9-9-9-9-9--|Repeat 3x
Ab--5-5-5-5-5-5-5-5-5-5-5-5-5-5-5-5--9-9-9-9-9-9-9-9-9-9-9-9-9-9-9-9--|
Eb--3-3-3-3-3-3-3-3-3-3-3-3-3-3-3-3--7-7-7-7-7-7-7-7-7-7-7-7-7-7-7-7--|

eb------------------------------------|
Bb------------------------------------|
Gb------------------------------------|
Db--5-5-5-5-5-5-5-5--7-7-7-7-7-7-7-7--|
Ab--5-5-5-5-5-5-5-5--7-7-7-7-7-7-7-7--|
Eb--3-3-3-3-3-3-3-3--5-5-5-5-5-5-5-5--|

*REPEAT VERSE
*REPEAT CHORUS

INTERLUDE
(Guitar 1 dist.)
eb----------------------------------|
Bb----------------------------------|
Gb----------------------------------| Repeat 3x
Db--9~------------7-5~------2~------|
Ab--7~------------7-5~------2~------|
Eb--7~------------5-3~------0~------|

(Guitar 2 dist.)**Not so sure about this part**
eb--5-----5-----5-----5-----5-----5-----5------|
Bb--5p3h5-5p3h5-5p3h5-5p3h5-5p3h5-5p3h5-5p3h5--|
Gb---------------------------------------------|
Db---------------------------------------------|
Ab---------------------------------------------|
Eb---------------------------------------------|

PRE-CHORUS (Rap Part)
CHORUS
INTRO/OUTRO
Comments