36 Crazyfists - With Nothing Underneath Chords & Tabs

 

With Nothing Underneath Chords & Tabs

36 Crazyfists Chords & Tabs

Version: 2 Type: Tab 0 ratings
1 star 2 stars 3 stars 4 stars 5 stars
comments

With Nothing Underneath Tab

Tuning: CGCFAD
 
 . : Palm Mute
 ~ : Let Note Ring
p.h: Pinch Harmonic 
 x : Muted String
 * : Natural Harmonic

Intro
|----------------------------|
|----------------------------|
|--88-8-888-8-88-8-888-8-88--| x2
|--xx-x-xxx-x-xx-x-xxx-x-xx--|
|--66-6-666-6-66-6-666-5-55--|
|----------------------------|

|----------|
|----------|
|--8-8-7~--|
|--x-x-x---|
|--6-6-5~--|
|----------|

Verse
|-------------------------------------------------|
|-------------------------------------------------|
|--------------------------------7-6-7-6----------| x2
|-1-0-0-777-1-0-0-777-1-0-0-777--x-x-x-x--111111--|
|-1-0-0-555-1-0-0-555-1-0-0-555--5-4-5-4---9-9-9--|
|-1-0-0-555-1-0-0-555-1-0-0-555------------9-9-9--|

|---------------------------|
|---------------------------|
|---------------------------|
|-111111-777-111111--0-5-4--|
|--9-9-9-555--9-9-9--0-5-4--|
|--9-9-9-555--9-9-9--0-5-4--|
                     . . .

|--------------------------------------------------------|
|--------------------------------------------------------|
|--------------------------------------------------------|
|-1-0-0-777-1-0-0-777--111111-777-111111------5p.h-4p.h--|
|-1-0-0-555-1-0-0-555---9-9-9-555--9-9-9--3p.h-----------|
|-1-0-0-555-1-0-0-555---9-9-9-555--9-9-9-----------------|

Chorus
|---------------------------------------------------|
|---------------------------------------------------|
|-----------------------------------11---14-12-11---|
|-4444444-0000000-7777777-77777-666--x----x--x--x---|
|-2222222-0000000-5555555-44444-444--9---12-10--9---|
|-2222222-0000000-5555555-44444-444-----------------|
                                     ^^^^^^^^^^^^these are strumed more times
                                                 then i have put, easy to figure out
                                                 yourself
Bit After Chorus:
|-------------------------------------------|
|-------------------------------------------|
|--------888888-------888888--------8-8-7~--|
|--0-5-4-xxxxxx-0-5-4-xxxxxx-0-5-4--x-x-x---|
|--0-5-4-666666-0-5-4-666666-0-5-4--6-6-5~--|
|--0-5-4--------0-5-4--------0-5-4----------|
   . . .        . . .        . . .         


Back to verse then this chorus:

|-----------------------------------------------------------------|
|-----------------------------------------------------------------|
|-----------------------------------11---14-12-11-----------------|
|-4444444-0000000-7777777-77777-666--x----x--x--x------5p.h-4p.h--|
|-2222222-0000000-5555555-44444-444--9---12-10--9--3p.h-----------|
|-2222222-0000000-5555555-44444-444-------------------------------|
[ Tab from: http://www.guitartabs.cc/tabs/0-9/36_crazyfists/with_nothing_underneath_tab_ver_2.html ]
|---------------------------------------------------|
|---------------------------------------------------|
|-----------------------------------11---14-12-11---|
|-4444444-0000000-7777777-77777-666--x----x--x--x---|
|-2222222-0000000-5555555-44444-444--9---12-10--9---|
|-2222222-0000000-5555555-44444-444-----------------|

|--------------------------------------------------------------------|
|--------------------------------------------------------------------|
|--------888888-------888888-------888888-------888888---------------|
|--0-5-4-xxxxxx-0-5-4-xxxxxx-0-5-4-xxxxxx-0-5-4-xxxxxx-0-5-4--2~--2--|
|--0-5-4-666666-0-5-4-666666-0-5-4-666666-0-5-4-666666-0-5-4--2~--2--|
|--0-5-4--------0-5-4--------0-5-4--------0-5-4--------0-5-4--2~--2--|
   . . .        . . .        . . .        . . .        . . .

Bridge
|--7--10--5--3--|
|--7--10--5--3--| the first part of bridge is based around these 
|--9--12--7--5--| chords played in clean with a bit of palm muting.
|--9--12--7--5--|
|--7--10--5--3--|
|---------------|


|---------------------------------------------------------|
|---------------------------------------------------------|
|---------------------------------------------------------|x 2 
|--9-9999-9-9999-9-9999-9-1212--7-7777-7-7777-5-55--3*----| 
|--7-7777-7-7777-7-7777-7-1010--5-5555-5-5555-3-33----3*--|
|--7-7777-7-7777-7-7777-7-1010--5-5555-5-5555-3-33-3*-----|
     ....   ....   ....    . .    ....   ....   ..

|----------------|
|----------------|
|----------------| gradualy release the palm mute 
|-555555555555---|
|-333333333333---|
|-333333333333---|
  ............

The chorus is then played in clean then this:
|-------------------------------------------|
|-------------------------------------------|
|-----------------14-12-11------------------|
|--4444444--4444---x--x--x-------5p.h-4p.h--|
|--2222222--4444--12-10--9--3p.h------------|
|--2222222--4444----------------------------|

Ending
|-----------------------------------------------------------------------------|
|-----------------------------------------------------------------------------|
|--8-8-7~--8-8-7~--8-8--------------------------------------------------------|
|--x-x-x---x-x-x---x-x--0~-0--1-1-0~-1-1--0-5-4--1-1-0-0~--1-1-0--1-1--0-5-4--|
|--6-6-5~--6-6-5~--6-6--0~-0--1-1-0~-1-1--0-5-4--1-1-0-0~--1-1-0--1-1--0-5-4--|
|-----------------------0~-0--1-1-0~-1-1--0-5-4--1-1-0-0~--1-1-0--1-1--0-5-4--|

|-------------------------------------------------------------------|
|-------------------------------------------------------------------|
|-------------------------------------------------------------8888--|
|--1-1-0~-0--1-1-0--1-1--0-5-4--1-1-0~-0~-0~--1-1-1-0--1-1-1--xxxx--|
|--1-1-0~-0--1-1-0--1-1--0-5-4--1-1-0~-0~-0~--1-1-1-0--1-1-1--6666--|
|--1-1-0~-0--1-1-0--1-1--0-5-4--1-1-0~-0~-0~--1-1-1-0--1-1-1--------|

|-----------------------|
|-----------------------|
|-----------------------|
|--1-1-1-0--1-1-1-0~-0--|
|--1-1-1-0--1-1-1-0~-0--|
|--1-1-1-0--1-1-1-0~-0--|



Tabbed by: Unknown
Submitted by: TheMutts
Comments