36 Crazyfists - Two Months From A Year Chords & Tabs

 

Two Months From A Year Chords & Tabs

36 Crazyfists Chords & Tabs

Version: 1 Type: Tab 0 ratings
1 star 2 stars 3 stars 4 stars 5 stars
comments

Two Months From A Year Tab

   
        SONG - "Two Months From A Year"
      ARTIST - 36 Crazyfists
   GUITARIST - Steve Holt
       ALBUM - Bitterness the Star

*--------------------------*
|Key:                      |
|  h - Hammer              |
|  p - Pull off            |
|  ~ - Let ring            |
|  / - Slide Up            |
|  \ - Slide Down          |
|  . - Palm Mute           |
|  x - Dead Note           |
| {} - Natural Harmonic    |
| [] - Artificial Harmonic |
| () - Ghost Note          |
|  b - Bend                |
|  r - Release Bend        |
|  *                       |
|  * - Repeat Bar          |
*--------------------------*


(Play in CGCFAD or DADGBE)


~Intro/Interlude~
D-|------------------------------||
A-|------------------------------||
F-|------------------------------||
C-|-------7~---7p5\-------3~-----||
G-|----55----5---------11----1/3-||
C-|-55--------------11-----------||
PM|                              ||


~Verse~
D-|----------------------------------||
A-|----------------------------------||
F-|----------------------------------||
C-|-555-7-55555-7-55555-7-55-5/7-1/6-||
G-|-555-5-55555-5-55555-5-55-5/7-1/6-||
C-|-555---55555---55555---55-5/7-1/6-||
PM|                                  ||

[ Tab from: http://www.guitartabs.cc/tabs/0-9/36_crazyfists/two_months_from_a_year_tab.html ]
~Pre-Chorus~
D-|----------------------------------------||
A-|----------------------------------------||
F-|----77-----77/888\5----77-----77/888/10-||
C-|-00-xx-000-xx-xxx-x-00-xx-000-xx-xxx-xx-||
G-|-00-55-000-55/666\3-00-55-000-55/666/-8-||
C-|-00----000----------00----000-----------||
PM| ..    ...          ..    ...           ||


~Chorus~
D-|------------||
A-|------------||
F-|------------||
C-|-3-2~-3-20~-||
G-|-3-2~-3-20~-||
C-|-3-2~-3-20~-||
PM|            ||


~Solo~
D-|-9h10-10-9v~-9h10-10-9-9-7--7--7/10-10-9v~-9\7--------------||
A-|--------------------------10-10---------------10------------||
F-|------------------------------------------------10/9--------||
C-|----------------------------------------------------10-9b~r-||
G-|------------------------------------------------------------||
C-|------------------------------------------------------------||
PM|                                                            ||


~Outro~
D-|----------||
A-|----------||
F-|----------||
C-|-3-2~~~~~-||
G-|-3-2~~~~~-||
C-|-3-2~~~~~-||
PM|          ||


~ORDER~
Intro/Interlude	(x8)
Verse		(x6)
Pre-Chorus	(x2)
Chorus 		(x2)
Verse		(x6)
Pre-Chorus	(x2)
Chorus		(x2)
Intro/Interlude	(x4)
Verse		(x2)
Pre-Chorus	(x4)
Solo		(x1)
Chorus		(x10)
Outro		(x1)

Steve Holt is one of the coolest guitarists ever. His riffs add so much flavour
and power to the crazyfists' music... but i guess nothing compares to Lindow's
vocals. here's to all the other 36CF fans out there.


**corrections/comments to thelycanthropist@hotmail.com**
Comments