36 Crazyfists - Turns To Ashes Chords & Tabs

 

Turns To Ashes Chords & Tabs

36 Crazyfists Chords & Tabs

Version: 1 Type: Tab 0 ratings
1 star 2 stars 3 stars 4 stars 5 stars
comments

Turns To Ashes Tab

------------------------------------------------------------------------------------------
			    TURNS TO ASHES - 36 CRAZYFISTS
------------------------------------------------------------------------------------------

By:BOSTOCK

THIS SONG TOOK ME QUITE A WHILE TO GET MYSELF. U SHOULD USE AN AFFECT ON THE
SOLO TO GET IT PERFECT.... MATT BOSTOCK RULES. DROP D IS CRAP

e-------------------------------------------
b-------------------------------------------
g-------------------------------------------   intro
d-------------------------------------------  
a-------------3-----------------------------
E-0-0-3-1-0-1---1---------------------------


e-------------------------------------------
b-------------------------------------------
g-------------*3*---------------------------  riff
d-0-0-3-1-0-1-*3*-1-------------------------
a-0-0-3-1-0-1-*3*-1-------------------------
E-0-0-3-1-0-1-----1-------------------------

e-------------------------------------------
b-------------------------------------------
g--8-------7-------------8------7----3------  verse
d-------------------------------------------
a-------------------------------------------
E-------------------------------------------
I'm not sick ... I'm just a boy ...

Pre-Chorus

e-----------------------------------------------------
b-----------------------------------------------------
g-----------------------------------------------------
d-0-0-0---0-0-0-----3-1-0-1-----0-0-0---0-0-0-----7h8- pre-chorus
a-0-0-0---0-0-0-----3-1-0-1-----0-0-0---0-0-0-----7h8-
E-0-0-0---0-0-0-----3-1-0-1-----0-0-0---0-0-0-----7h8-
                      PM . . .     
 
e-----------------------------------------------------
b-----------------------------------------------------
g-----------------------------------------------------
d-0-0-0---0-0-0-----3-1-0-1-----0-0-0---0-0-0-----3h1- pre-chorus
a-0-0-0---0-0-0-----3-1-0-1-----0-0-0---0-0-0-----3h1-
E-0-0-0---0-0-0-----3-1-0-1-----0-0-0---0-0-0-----3h1-
                      PM . . .     

[ Tab from: http://www.guitartabs.cc/tabs/0-9/36_crazyfists/turns_to_ashes_tab.html ]
e-------------------------------------------------
b-------------------------------------------------
g-------------------------------------------------
d-0-------7--------3--------8---------------------  chorus
a-0-------7--------3--------8---------------------
E-0-------7--------3--------8--------0-0-0--0-0-0-

e------------------------------------------------------
b------------------------------------------------------
g-7-7-7-7---7/9-9-9-9---9/10-10-10-10---10/14-14-14-14-  chorus contd....
d------------------------------------------------------
a-5-5-5-5---5/7-7-7-7---7/-8--8--8--8----8/12-12-12-12-
E------------------------------------------------------
I don't know how much you thought I'd be 

e---------------------------------------------------
b---------------------------------------------------
g-7-7-7-7---7/9-9-9-9---9/10-10-10-10---10/7-7-6-6--
d---------------------------------------------------   chorus contd...
a-5-5-5-5---5/7-7-7-7---7/-8--8--8--8----8/5-5-4-4--
E---------------------------------------------------
It turns to ashes on me 



S-O-L-O

played with an effect

e--10----------------13----11-----------
b-------------------------------10------
g---------------------------------------
d---------------------------------------
a---------------------------------------
E---------------------------------------

e--10----------------13----11---13------
b---------------------------------------
g---------------------------------------
d---------------------------------------
a---------------------------------------
E---------------------------------------

e--10----------------13----11-----------
b-------------------------------10------
g---------------------------------------
d---------------------------------------
a---------------------------------------
E---------------------------------------

e--10----------------13----15----17~-----
b---------------------------------------- 
g----------------------------------------
d----------------------------------------
a----------------------------------------
E----------------------------------------

THIS IS AS ACCURATE AS I CAN GET IT AND I HOPE U ENJOY IT..... ROCK ON
Comments