36 Crazyfists - The Heart And The Shape Chords & Tabs

 

The Heart And The Shape Chords & Tabs

36 Crazyfists Chords & Tabs

Version: 3 Type: Tab 0 ratings
1 star 2 stars 3 stars 4 stars 5 stars
comments

The Heart And The Shape Tab

This is just the intro n i tink its atleast 95% correct, u be the judge.

D|---------------------------------------------|
A|---------------------------------------------|
F|---10p9-9-10p9-9---9------10p9-9------10p9-9-|
C|-0~--------------0----8~----------7~---------|
G|---------------------------------------------|
C|---------------------------------------------|

Repeat as neccesary and there are two guitars in this, and the second guitarist symply
plays the bit at the bottom (it is the same i know), as for the rest i will get back to
you once my friend has taught it me.
[ Tab from: http://www.guitartabs.cc/tabs/0-9/36_crazyfists/the_heart_and_the_shape_tab_ver_3.html ]
D|---------------------------------------------|
A|---------------------------------------------|
F|---10p9-9-10p9-9---9------10p9-9------10p9-9-|
C|-0~--------------0----8~----------7~---------|
G|---------------------------------------------|
C|---------------------------------------------|

I ent really sure bout this bit:

D|------------------------------------|
A|------------------------------------|
F|------------------------------------|
C|-0-3p2-0-2-3p2-0-2-3p2-88888-77777--|
G|-0-3p2-0-2-3p2-0-2-3p2-88888-77777--|
C|-0-3p2-0-2-3p2-0-2-3p2-88888-77777--|
Possible Harmonic    ^^^

enjoy \\m//(><)\\m//
Comments