36 Crazyfists - Slit Wrist Theroy Chords & Tabs

 

Slit Wrist Theroy Chords & Tabs

36 Crazyfists Chords & Tabs

Version: 1 Type: Tab 1 rating
1 star 2 stars 3 stars 4 stars 5 stars
comments

Slit Wrist Theroy Tab

   
36 crazy fists 
slit wrist theory

drop d

e---------------------------------------------e
b---------------------------------------------b
g---------------------------------------------g
d-----6---5---6---5--3-------6---5---6---8-6--d  x8 
a-00---0---0---0---------00---0---0---0-------a  
d---------------------------------------------d
[ Tab from: http://www.guitartabs.cc/tabs/0-9/36_crazyfists/slit_wrist_theroy_tab.html ]
e--listen to song to get the timing of the pull offs right
b-------------------------------------------------------b
g-------------------------------------------------------g
d---3-p-0-------1---2-----2---3----3--------------------d x2  
a---3-p-0-------1---2-----2---3----3--------------------a 
d---3-p-0-------1---2-----2---3----3--------------------d

on 2nd time play last half again

there is more of this to come once i have time to figure it out

till next time 
m colclough
Comments