36 Crazyfists - Slit Wrist Theory Chords & Tabs

 

Slit Wrist Theory Chords & Tabs

36 Crazyfists Chords & Tabs

Version: 1 Type: Tab 1 rating
1 star 2 stars 3 stars 4 stars 5 stars
comments

Slit Wrist Theory Tab

36 Crazyfists
Slit Wrist Theory
dropped d(tuned down 1 whole step)


Verse(w/delay)
|------------------------------|
|------------------------------|
|------------------------------|
|---8---7---5------8---7--10---|
|-----6---3----------6-------8-|
|-5--------------5-------------|

Get the f@#* out.....
|--------------------------------------------------------|
|--------------------------------------------------------|
|--------------------------------------------------------|
|-3-5-5-3-6-5-3-5-3-5-5-3-6-5-3-5-0---1---3---4---0-3--4-|
|-3-5-5-3-6-5-3-5-3-5-5-3-6-5-3-5-0---1---3---4---0-3--4-|
|-3-5-5-3-6-5-3-5-3-5-5-3-6-5-3-5-0---1---3---4---0-3--4-|
[ Tab from: http://www.guitartabs.cc/tabs/0-9/36_crazyfists/slit_wrist_theory_tab.html ]
Chorus
|---------------------------------------------------------------------------------------------------------------|
|---------------------------------------------------------------------------------------------------------------|
|-------------------------------------------------------------1212121212121212-------------1010101010101010-----|
|-5-5-5-5-5-5-5-5-5-5-5-5-8-8-8-8-8-8-8-8-8-8-8-8-8-8-8-8-8-8-1212121212121212-8-8-8-8-8-8-1010101010101010-x-6-|
|-5-5-5-5-5-5-5-5-5-5-5-5-8-8-8-8-8-8-8-8-8-8-8-8-6-6-6-6-6-6-1010101010101010-6-6-6-6-6-6--8-8-8-8-8-8-8-8-x-6-|
|-5-5-5-5-5-5-5-5-5-5-5-5-8-8-8-8-8-8-8-8-8-8-8-8-------------1010101010101010--------------8-8-8-8-8-8-8-8-x-6-|

Bridge
|-----------------------------------------------------------|
|-----------------------------------------------------------|
|-----------------------------------------------------------|
|-5-5-5-3-6-6-6-3-5-5-5-3-6-6-6-3-5-5-5-6-6-6-3-5-3-5-3-x-1-|
|-5-5-5-3-6-6-6-3-5-5-5-3-6-6-6-3-5-5-5-6-6-6-3-5-3-5-3-x-1-|
|-5-5-5-3-6-6-6-3-5-5-5-3-6-6-6-3-5-5-5-6-6-6-3-5-3-5-3-x-1-|

That's all the riffs and i'm about %90 sure that it's all correct.  any questions holla back at me
at guitarhead1685@aol.com.			
Comments