36 Crazyfists - Left Hand Charity Chords & Tabs

 

Left Hand Charity Chords & Tabs

36 Crazyfists Chords & Tabs

Version: 3 Type: Tab 0 ratings
1 star 2 stars 3 stars 4 stars 5 stars
comments

Left Hand Charity Tab

   
I just downloaded this song and a couple of others by 36 Crazyfists,
and thought this song was really good.  so I decided to tab it as there
were only two riffs in the song, and it didn't seem the hardest of songs
to work out.

This band is from Alaska (USA).

It's in Drop D tuning, not sure if they play in different tuning to that,
but the song works in it.

Intro/verse/outro
|-----------------------------------
|-----------------------------------
|-----------------------------------
|-----4---6---7---------0---2-------
|---4---4---4---4-----0---0---0-4-0-
|-4-----------------0---------------
[ Tab from: http://www.guitartabs.cc/tabs/0-9/36_crazyfists/left_hand_charity_tab_ver_3.html ]
chorus
|----------------------------------
|----------------------------------
|----------------------------------
|-4-4-4-4-4-4-4-4--2-2-2-2-2-2-2-2-
|-4-4-4-4-4-4-4-4--2-2-2-2-2-2-2-2-
|-4-4-4-4-2-2-2-2--2-2-2-2-0-0-0-0-

intro x 6
chorus x 2
verse x 6
chorus x 4
outro x 4

end on D|-4-
(Lowered D)

any questions? andrewbiles@hotmail.com
_______________________________
Lyrics (www.darklyrics.com):

A classroom circle slowly drifts on...
I knew right then I'd carve your name, so I... 
Save your charity it's gone too far now as it seems 

I drive by your scenery...
All the while I died that night...
Please come back, tell me it's alright 

And save your charity it's gone too far now as it seems...
Little boys that misbehave 

And I want to look you in your eye...
I want to look you in your eye...
Want to look you in your eye
I want to look you in your eye
Comments