36 Crazyfists - Left Hand Charity Chords & Tabs

 

Left Hand Charity Chords & Tabs

36 Crazyfists Chords & Tabs

Version: 2 Type: Tab 1 rating
1 star 2 stars 3 stars 4 stars 5 stars
comments

Left Hand Charity Tab

Band:   36 Crazy Fists  
Song:   Left Hand Charity
Album:  Bitterness the Star
Tabber: bloodydan@lycos.com

Standard Drop D

e---------------------------
B---------------------------
G---------------------------  x6
D----4-6-7p6------0-2-3p0---
A---4-4-4--------0-0-0------
D--4------------0-----------

e---------------------------
B---------------------------
G---------------------------  x2
D--44444444-44444444--------
A--44444444-44444444--------
D--44444444-44444444--------
[ Tab from: http://www.guitartabs.cc/tabs/0-9/36_crazyfists/left_hand_charity_tab_ver_2.html ]
e---------------------------
B---------------------------
G---------------------------  x6
D----4-6-7p6------0-2-3p0---
A---4-4-4--------0-0-0------
D--4------------0-----------

e---------------------------
B---------------------------
G---------------------------  x4
D--44444444-44444444--------
A--44444444-44444444--------
D--44444444-44444444--------

e---------------------------          e-----
B---------------------------          B-----
G--------------------------- x4       G----- x1
D----4-6-7p6------0-2-3p0---          D-----
A---4-4-4--------0-0-0------          A-0---
D--4------------0-----------          D---0-    Let open strings ring

Comments