36 Crazyfists - Eightminutesupsidedown Chords & Tabs

 

Eightminutesupsidedown Chords & Tabs

36 Crazyfists Chords & Tabs

Version: 1 Type: Bass Tab 0 ratings
1 star 2 stars 3 stars 4 stars 5 stars
comments

Eightminutesupsidedown Bass Tab

   
#----------------------------------PLEASE NOTE---------------------------------#
#This file is the author's own work and represents their interpretation of the-#
#song. You may only use this file for private study, scholarship, or research.-#
#------------------------------------------------------------------------------#

36 Crazyfists
Eightminutesupsidedown
Bitterness The Star
Tabbed By Adam Williams

Tuning C G C f

Intro: Part1: x2

X2 
|---------------------------------------------|
|---------------------------------------------|
|-77777777777777777/8888888888888888----------|
|---------------------------------------------|


Part2: x2   
|---------------------------------------
|---------------------------------------
|-777777777777/5555/888888888888/5555---
|---------------------------------------

 
--------------------------------------------------|
--------------------------------------------------|
-777777777777/5555/888888888888/9999-777/0--------|
--------------------------------------------------|


Fill: x1
 
|-------------------------------------------|
|-------------------------------------------|
|-------------------------------------------|
|--0-2h3-2-0h2---2h3-2-0h2---2h3-2-0h2-2--|


|-------------------------------------------|
|-------------------------------------------|
|-------------------------------------------|
|--0-2h3-2-0h2---2h3-2-0h2---2h3-2-0h2-0--|

[ Tab from: http://www.guitartabs.cc/tabs/0-9/36_crazyfists/eightminutesupsidedown_btab.html ]
 
Verse part 1:  x1
 
|------------------------------------------------------------------------|
|------------------------------------------------------------------------|
|------------------------------------------------------------------------|
|-2322-23233-230-----2322-23233-230-----2322-23233-230----2322-23233-230-|
 
 


Verse part 2:  x1
            
|------------------------------------------------------------------------|
|------------------------------------------------------------------------|
|-----2------3---3/5----2------3---3/5----2-----3----3/5----2-----3----5-|
|-232---232----22---232---232----22---232---232----22---232---232----3---|


Intro part 2: x1

Verse: part1: x1

Verse part 2: x1


Chorus:  x2
 
|-------------------------------------------------------------------------|
|-------------------------------------------------------------------------|
|-------------------------------------------------------------------------|
|-7777777777777777-3333333333333333-8888888888888888-33333333-55555555----|


Post Chorus: x1 
 
|------------------------------------------------|
|------------------------------------------------|
|------------------------------------------------|
|-8--8--8--8--8-8--8-8-8-8\5---------------------|

Fill: x1

Verse: Part1:

Verse part 2:

Chorus: x2

Post chorus fill: 

|--------------------------------|
|--------------------------------|
|--------------------------------|
|-8--8--8--8--8-8--8-8-8-8\5-8\5-|

Chorus: x2

Post chorus: x1

Fill: x1

================================================================================
Comments