36 Crazyfists - Chalk White Chords & Tabs

 

Chalk White Chords & Tabs

36 Crazyfists Chords & Tabs

Version: 1 Type: Tab 0 ratings
1 star 2 stars 3 stars 4 stars 5 stars
comments

Chalk White Tab

   
Drop C tuning (C-G-C-F-A-D)


Intro
D------------------------------------------------|
A---7-----7-----------5--------------------------|
F---6----------6-----------6---------------------|
C---4------------------------------0-------0-----|
G---4----------------------------------0-------0-|
C---4--------------------------------------------|


D--------------------------------------------------|
A--------------------------------------------------|
F---------------------------13-13-13-13-13-13-13---|
C-11-11-11-11-11-11-11-11--------------------------|
G-11-11-11-11-11-11-11-11---11-11-11-11-11-11-11---|
C-11-11-11-11-11-11-11-11--------------------------|

D------------------------------------|
A------------------------------------|
F-------------------6-6-6-6/7/6------|
C-9-9-9-9-9-9-9-9--------------------|
G-9-9-9-9-9-9-9-9---4-4-4-4/5/4------|
C-9-9-9-9-9-9-9-9--------------------|


D-------------------------------------------|
A-------------------------------------------|
F-------------------------------------------|
C-11-11-11-11-11-11-11-11-11-11-11-11-11-11-|
G-11-11-11-11-11-11-11-11-11-11-11-11-11-11-|
C-11-11-11-11-11-11-11-11-11-11-11-11-11-11-|


D--------------------------------------------|
A--------------------------------------------|
F-/13-13-13-13-13-13-13-13-18-18-18-18-18-18-|
C--------------------------------------------|
G-/11-11-11-11-11-11-11-11-16-16-16-16-16-16-|
C--------------------------------------------|

D------------------------------------------------------------------|
A------------------------------------------------------------------|
F------------------------------------------------------------------|
C-4-4-4-4---0--------4--x-x--0-------4-4-4-4---0-------4--x-x-0----|
G-4-4-4-4---0--------4--x-x--0-------4-4-4-4---0-------4--x-x-0----|
C-4-4-4-4---0--------4--x-x--0-------4-4-4-4---0-------4--x-x-0----|

D-------------------------------------------|
A-------------------------------------------|
F-13-13-13-13-13-13-13-6/7/6----------------|
C-------------------------------------------|
G-11-11-11-11-11-11-11-4/5/4----------------|
C-------------------------------------------|

Verse
D-------------------------------------------|
A-------------------------------------------|
F--11-11-11-11-11-11/6-6--------------------|
C-------------------------------------------|
G---9--9--9--9--9--9/4-4--------------------|
C-------------------------------------------|

[ Tab from: http://www.guitartabs.cc/tabs/0-9/36_crazyfists/chalk_white_tab.html ]
D-------------------------------------------|
A-------------------------------------------|
F--13-13-13-13-13-13/6-6--------------------|
C-------------------------------------------|
G--11-11-11-11-11-11/4-4--------------------|
C-------------------------------------------|

D-------------------------------------------|
A-------------------------------------------|
F--11-11-11-11-11-11/6-6--------------------|
C-------------------------------------------|
G---9--9--9--9--9--9/4-4--------------------|
C-------------------------------------------|

D-------------------------------------------|
A-------------------------------------------|
F-13-13-13-13-13-13/18-18-18-18-18----------|
C-------------------------------------------|
G-11-11-11-11-11-11/16-16-16-16-16----------|
C-------------------------------------------|


Pre-Chorus
D-------------------------------------------|
A-------------------------------------------|
F-------------------6/7/6-------------------|
C-------------------------------------------|
G-------------------4/5/4-------------------|
C--0--000--0-0-0-0--------------------------|
PM .  ...  . . . .

FORWARD!!! .... BACKWARD!!

Chorus
D-------------------------------------------|
A-------------------------------------------|
F-------------------------------------------|
C--4--------6--------7--------11------------|
G--4--------6--------7--------11------------|
C--4--------6--------7--------11------------|
     You better get yourself . . .

D-------------------------------------------|
A-------------------------------------------|
F-------------------6/7/6-------------------|
C-------------------------------------------|
G-------------------4/5/4-------------------|
C--0--000--0-0-0-0--------------------------|
PM .  ...  . . . .

     out of it .......

Bridge
D-------------------------------------------|
A-------------------------------------------|
F-------------------------------------------|
C-------------------------------------------|
G-----------------------------------5-------|
C--5-5-4-0---5-5-4-0---5-5-4-0---5-----5----|

D-------------------------------------------|
A-------------------------------------------|
F-------------------------------------------|
C--5-5-4-0---5-5-4-0---5-5-4-0--------------|
G--5-5-4-0---5-5-4-0---5-5-4-0------5-------|
C--5-5-4-0---5-5-4-0---5-5-4-0---5-----5----|
You think it's right but it ain't right ...


D-------------------------------------------|
A-------------------------------------------|
F-------------------------------------------|
C--5---4-0---5---4-0---5---4-0--------------|
G--5---4-0---5---4-0---5---4-0------5-------|
C--5---4-0---5---4-0---5---4-0---5-----5----|
AAAAAHHHHHH!!! FORWARD! ... BACKWARD!


Tabbed by: RehabReject
Submitted by: TheMutts
Comments