36 Crazyfists - Chalk White Chords & Tabs

 

Chalk White Chords & Tabs

36 Crazyfists Chords & Tabs

Version: 1 Type: Bass Tab 0 ratings
1 star 2 stars 3 stars 4 stars 5 stars
comments

Chalk White Bass Tab

   
#----------------------------------PLEASE NOTE---------------------------------#
#This file is the author's own work and represents their interpretation of the-#
#song. You may only use this file for private study, scholarship, or research.-#
#------------------------------------------------------------------------------#

36 Crazyfists
Chalk White
Bitterness The Star
Tabbed By Adam Williams

Tuning C G C F

Intro: x1

 
|--------------------------------------------------
|--------------------------------------------------
|---------------------------11-11-11-11-11-11-11---
|-11-11-11-11-11-11-11-11--------------------------

 
------------------------------------
------------------------------------
-------------------4-4-4-4/5/4------
-9-9-9-9-9-9-9-9--------------------


 
-------------------------------------------
-------------------------------------------
-------------------------------------------
-11-11-11-11-11-11-11-11-11-11-11-11-11-11-


 
---------------------------------------------------|
---------------------------------------------------|
--/16-16-16-16-16-16-16-16-11-11-11-11-11-11-11-11-|
---------------------------------------------------|

x1 
|------------------------------------------------------------------|
|------------------------------------------------------------------|
|------------------------------------------------------------------|
|-4-4-4-4---0--------4--x-x--0-------4-4-4-4---0-------4--x-x-0--x-|

 
 



Verse: x1
 
|-----------------------------------------------------------
|-----------------------------------------------------------
|--9-9-9--9-9-9-9-9\4-4---11-11-11--11-11--11-11-11/4-4----
|-----------------------------------------------------------

[ Tab from: http://www.guitartabs.cc/tabs/0-9/36_crazyfists/chalk_white_btab.html ]
 
---------------------------------------------------------------------------|
---------------------------------------------------------------------------|
--9-9-9-9-9--9-9-9/4-4----11-11-11-11-1111-11-11/16-16-16-16-16-16-16-16-|
---------------------------------------------------------------------------|

 


Pre-Chorus: x4
 
|-----------------------------------------|
|-----------------------------------------|
|-----------------4/5/4-------------------|
|---000--0-0-0-0--------------------------|
 

Verse: x1

Pre-chorus: x4



Chorus:
 
|---------------------------------------------------------------------------|
|---------------------------------------------------------------------------|
|---------------------------------------------------------------------------|
|---4-4-4-4-4-4-4-4-6-6-6-6-6-6-6-6-7-7-7-7-7-7-7-7-11-11-11-11-11-11-11-11-|
  

Pre-chorus: x2

Chorus: 

Pre-chorus: x1

Pre-chorus variation: x1

|-----------------------|
|-----------------------|
|-----------------------|
|---000--0-0-0-0-0-0-0-|
 



Bridge:

X1         x4
----------|-------------------------------------------|
----------|-------------------------------------------|
----5-----|-----------------------------------5-------|
-5-----5--|--5-5-4-0---5-5-4-0---5-5-4-0---5-----5----|

 
Verse: x1

Pre-chorus: x4

Chorus: x1

Pre-chorus: x2

Chorus: 1

Pre-chorus: x1

Pre-chorus variation: x1

 
Bridge: 

X1         x4 (same as before)



2nd Bridge: X4

 
|------------------------------------------|
|------------------------------------------|
|----------------------------------5-------|
|--5---4-0---5---4-0---5---4-0---5----5----|


Bridge: x4

================================================================================
Comments