36 Crazyfists - Bloodwork Chords & Tabs

 

Bloodwork Chords & Tabs

36 Crazyfists Chords & Tabs

Version: 4 Type: Tab

Bloodwork Tab

Bloodwork
36 Crazyfists
A Snow Capped Romance
Tabbed By: lazyskaterlump@hotmail.com

Dropped C tuning

Palm Mute All
-----------------------------------------------------------|
-----------------------------------------------------------|
-------------------------------------------------77-55-44--|
-----99-1010-99------99-1010-99----99-1010-99--------------| 2X
--77------------------------------------------55-----------|
----------------1010------------77-------------------------|
                      Second time pinch harmonic last note

--------------------------------------------------------------|
--------------------------------------------------------------|
-----------------------------------------------1414-1212-1111-|
--222-0-222-0-1010-1212-1010-99-777-5-7777-00--x-x--x-x--x-x--| 2X
--222-0-222-0-1010-1212-1010-99-777-5-7777-00--1212-1010-9-9--|
--222-0-222-0-1010-1212-1010-99-777-5-7777-00-----------------|
                                        PM ..
Palm Mute All
-----------------------------------------------------------|
-----------------------------------------------------------|
-------------------------------------------------77-55-44--|
-----99-1010-99------99-1010-99----99-1010-99--------------| 3X
--77------------------------------------------55-----------|
----------------1010------------77-------------------------|

Palm Mute All
----------------------------------------------------|
----------------------------------------------------|
----------------------------------------------12-11-|
-----99-1010-99------99-1010-99----99-1010-99-------| 1X
--77------------------------------------------------|
----------------1010------------77------------------|

--------------------------------------------------------------|
--------------------------------------------------------------|
-----------------------------------------------1414-1212-1111-|
--222-0-222-0-1010-1212-1010-99-777-5-7777-00--x-x--x-x--x-x--| 2X
--222-0-222-0-1010-1212-1010-99-777-5-7777-00--1212-1010-9-9--|
--222-0-222-0-1010-1212-1010-99-777-5-7777-00-----------------|
                                        PM ..

--------------------------------------------|
--5555-7777-8888-10101010-101010-1010-10-99-|
--4444-6666-7777-9-9-9-9--9-9-9--9-9--9--77-|
--2222-4444-5555-7-7-7-7--7-7-7--7-7--7--55-|
--2222-4444-5555-7-7-7-7--7-7-7--7-7--7--55-|
--2222-4444-5555-7-7-7-7--7-7-7--7-7--7--55-|

--------------------------------------------|
--5555-7777-8888-10101010-101010-1010-10-66-|
--4444-6666-7777-9-9-9-9--9-9-9--9-9--9--55-|
--2222-4444-5555-7-7-7-7--7-7-7--7-7--7--33-|
--2222-4444-5555-7-7-7-7--7-7-7--7-7--7--33-|
--2222-4444-5555-7-7-7-7--7-7-7--7-7--7--33-|

Palm Mute all
-----------------------------------------------------------|
-----------------------------------------------------------|
-------------------------------------------------77-55-44--|
-----99-1010-99------99-1010-99----99-1010-99--------------| 3X
--77------------------------------------------55-----------|
----------------1010------------77-------------------------|
[ Tab from: http://www.guitartabs.cc/tabs/0-9/36_crazyfists/bloodwork_tab_ver_4.html ]
Palm Mute all
-------------------------------------------------------|
-------------------------------------------------------|
----------------------------------------------12-11p^--|
-----99-1010-99------99-1010-99----99-1010-99----------| 1X
--77---------------------------------------------------|
----------------1010------------77---------------------|
                                     p^=Pinch Harmonic

--------------------------------------------------------------|
--------------------------------------------------------------|
-----------------------------------------------1414-1212-1111-|
--222-0-222-0-1010-1212-1010-99-777-5-7777-00--x-x--x-x--x-x--| 2X
--222-0-222-0-1010-1212-1010-99-777-5-7777-00--1212-1010-9-9--|
--222-0-222-0-1010-1212-1010-99-777-5-7777-00-----------------|
                                        PM ..

--------------------------------------------|
--5555-7777-8888-10101010-101010-1010-10-99-|
--4444-6666-7777-9-9-9-9--9-9-9--9-9--9--77-|
--2222-4444-5555-7-7-7-7--7-7-7--7-7--7--55-|
--2222-4444-5555-7-7-7-7--7-7-7--7-7--7--55-|
--2222-4444-5555-7-7-7-7--7-7-7--7-7--7--55-|

---------------------------------------------------|
--5555-7777-8888-10101010-101010-1010-10-----------|
--4444-6666-7777-9-9-9-9--9-9-9--9-9--9------------|
--2222-4444-5555-7-7-7-7--7-7-7--7-7--7--33333-----|
--2222-4444-5555-7-7-7-7--7-7-7--7-7--7--33333-----|
--2222-4444-5555-7-7-7-7--7-7-7--7-7--7--33333bend-|
                                       PM.....

-----------------    -----------------    --------------|
-----------------    -----------------    --------------|
-----------------    -----------------    --------------|
--222-222-222-20- 4X --222-222-222000- 2X --222-222-222-|
--222-222-222-20-    --222-222-222000-    --222-222-222-|
--222-222-222-20-    --222-222-222000-    --222-222-222-|
                                                  PM...

--------------------------------------------------------------|
--------------------------------------------------------------|
-----------------------------------------------1414-1212-1111-|
--222-0-222-0-1010-1212-1010-99-777-5-7777-00--x-x--x-x--x-x--| 2X
--222-0-222-0-1010-1212-1010-99-777-5-7777-00--1212-1010-9-9--|
--222-0-222-0-1010-1212-1010-99-777-5-7777-00-----------------|
                                        PM ..

--------------------------------------------|
--5555-7777-8888-10101010-101010-1010-10-99-|
--4444-6666-7777-9-9-9-9--9-9-9--9-9--9--77-|
--2222-4444-5555-7-7-7-7--7-7-7--7-7--7--55-|
--2222-4444-5555-7-7-7-7--7-7-7--7-7--7--55-|
--2222-4444-5555-7-7-7-7--7-7-7--7-7--7--55-|

---------------------------------------------------|
--5555-7777-8888-10101010-101010-1010-10-----------|
--4444-6666-7777-9-9-9-9--9-9-9--9-9--9------------|
--2222-4444-5555-7-7-7-7--7-7-7--7-7--7--33333-----|
--2222-4444-5555-7-7-7-7--7-7-7--7-7--7--33333-----|
--2222-4444-5555-7-7-7-7--7-7-7--7-7--7--33333bend-|
                                       PM.....

-----------------    -----------------    ----------------|
-----------------    -----------------    ----------------|
-----------------    -----------------    ----------------|
--222-222-222-20- 4X --222-222-222000- 4X --222-222-222-2-| 2X
--222-222-222-20-    --222-222-222000-    --222-222-222-2-|
--222-222-222-20-    --222-222-222000-    --222-222-222-2-|
                                                  PM...

This tab is pretty correct if i must say so myself.  I didnt add the second
Guitar part in however.  Well hope you like it, e-mail me if u think a part is wrong

lazyskaterlump@hotmail.com