36 Crazyfists - Bloodwork Chords & Tabs

 

Bloodwork Chords & Tabs

36 Crazyfists Chords & Tabs

Version: 2 Type: Tab 0 ratings
1 star 2 stars 3 stars 4 stars 5 stars
comments

Bloodwork Tab

 Song: Bloodwork
 Artist: 36 Crazyfists
 Album: A Snow Capped Romance
 Guitarist: Steve Holt
 Transcribed by: Ryan
 Email: Falling_away_from_nothing@hotmail.com

 Tuning: CGCFAD

 ^ - Pinch harmonic
 . - Palm mute
 / - Slide
 x - Muted string
 
 Intro 1 - Clean 
|--------------------------------------------------------------|
|--------------------------------------------------------------|
|--------------------------------------------------------------|
|----99-1010-99------99-1010-99----99-1010-99----1212-1010-99--|
|-77-----------------------------------------------------------|
|---------------1010------------77------------00---------------|
  .. .. .... .. .... .. .... .. .. .. .... .. .. .... .... ..

 Intro 2
|--------------------------------------------------------------|
|--------------------------------------------------------------|
|--------------------------------------------------------------|
|----99-1010-99------99-1010-99----99-1010-99-00-1212-1010-9^--|
|-77------------------------------------------00---------------|
|---------------1010------------77------------00---------------|
  .. .. .... .. .... .. .... .. .. .. .... .. .. 
                                              ^Distortion on
[ Tab from: http://www.guitartabs.cc/tabs/0-9/36_crazyfists/bloodwork_tab_ver_2.html ]
 Chorus 1
|----------------------------------------------------------|
|----------------------------------------------------------|
|------------------------------------------1414-1212-1111--|
|-222222--1010-1212-1010-1010--777777--00---x-x--x-x--x-x--| x2
|-222222--1010-1010-1010-1414--777777--00--1212-1010--9-9--|
|-222222--1010-1010-1010-1010--777777--00------------------|

 Verse - the verse is just the intro 1 with a 2nd guitar played over:

|--------------------------|
|--------------------------|
|-0/14-14/7-7-7/9-9-12-11--|
|--------------------------| This is played in clean, the 2nd time, turn distotion on 
|--------------------------| for the last 2 notes.
|--------------------------|


Chorus 2 - chorus 1 is played twice then this

|--------------------------------|
|--------------------------------|
|-9-11-12-14--999-9-99-----------|
|-x--x--x--x--777-7-77--333333---|
|-7--9-10-12--777-7-77--333333---|
|-------------777-7-77--333333---|

On the 2nd verse there is a slight variation on guitar 2:

|--------------------------|
|--------------------------|
|-0/14-14/7-7-7/9-9-12-11^-|
|--------------------------| Again, remember the distortion for the last 2 notes. 
|--------------------------| 
|--------------------------|


As the bridge comes the last notes of chorus 2 are palm muted, then:

|--------------------------|
|--------------------------|
|--------------------------|
|-222--555--444--2-0-------|
|-222--222--222--2-0-------|
|-222--222--222--2-0-------|

|-----------------------------------|
|-----------------------------------|
|-----------------------------------| This riff is used at the end of the song
|-222-222-222-0--0-222-222-222-0----| with some small variations which you can
|-222-222-222-0--0-222-222-222-0----| figure out yourself.
|-222-222-222-0--0-222-222-222-0----|
Comments