36 Crazyfists - At The End Of August Chords & Tabs

 

At The End Of August Chords & Tabs

36 Crazyfists Chords & Tabs

Version: 3 Type: Bass Tab 0 ratings
1 star 2 stars 3 stars 4 stars 5 stars
comments

At The End Of August Bass Tab

   
-----------------------------------------------------------------------------
			     At The End Of August - 36 Crazyfists
-----------------------------------------------------------------------------

Tabbed By : Ezra
e-mail: in_flames_666@hotmail.com

Tuning: C G C F

Except for any slip ups I've made transcribing it, it should be pretty much correct. A 
better than some rubbish tabs around.

Intro: Wait for guitar to play once through, then:

F|---------------------------------------------------------------------------|
C|---------------------------------------------------------------------------|
G|----444---444------777---777------777---777-----999-----------111111-------|
C|-444---444---44-777---777---77-777---777---77-999---99-1111111------1111~--|

Pre-verse:
F|---------------------------------------------------------------------------|
C|---------------------------------------------------------------------------|
G|-9999999999999999-7777777777777777-5555555555555555-4444444444444444-------|
C|---------------------------------------------------------------------------|

Verse: [Tricky timing]
F|---------------------------------------------------------------------------|
C|---------------------------------------------------------------------------|
G|---------------------------------------------------------------------------|
C|-4-2h4-2h4-2h5--2-4202-----------------------------------------------------|

Pre-chorus 1:
F|----------------------------------------------------------------------------|
C|----------------------------------------------------------------------------|
G|----------------------------------------------------------------------------|
C|-4444444444444444-7777777777777777-7777777777777777-99999999111111111111111-|

Chorus:
F|---------------------------------------------------------------------|
C|---------------------------------------------------------------------|
G|---------------------------------------------------------------------|
C|-9999999999999999-7777777777777777-5--5--5--5-5-55-4--4--4--4-4-44---|
[ Tab from: http://www.guitartabs.cc/tabs/0-9/36_crazyfists/at_the_end_of_august_btab_ver_3.html ]
F|--------------------------------------------------------------------------------------------|
C|--------------------------------------------------------------------------------------------|
G|--------------------------------------------------------------------------------------------|
C|-8888888888888888-11111111111111111111111111111111-12121212121212121212121212121212-2-2-3~--|

Pre-chorus 2:

F|---------------------------------------------------------------------------|
C|---------------------------------------------------------------------------|
G|----444---444------777---777------777----777------999---------111111-------|
C|-444---444---44-777---777---77-777---777----77-999---99-111111------1111---|

Bass rests for guitar breakdown, then:

F|---------------------------------------------------------------------------|
C|---------------------------------------------------------------------------|
G|---------------------------------------------------------------------------|
C|-999-999-999-999-777-777-777-777-555-555-555-555-444-444-444-444-----------|

F|---------------------------------------------------------------------------------|
C|---------------------------------------------------------------------------------|
G|---------------------------------------------------------------------------------|
C|-888-888-888-888-111111-111111-1111111-111111-121212-121212-121212-121212-2-2-3--|

End verse:
F|---------------------------------------------------------------------------|
C|---------------------------------------------------------------------------|
G|---------------------------------------------------------------------------|
C|-4-2h5-2h4-2h5-2h4-5-------------------------------------------------------|

Order:

Intro
Pre-verse
Verse x 8
Pre-chorus 1
Chorus
[Wait for one guitar riff before entering:]
Verse x 8
Pre-chorus 2
Chorus
[Rest for guitar breakdown/talking]
Breakdown
Chorus
[Wait for two guitar riffs before entering:]
Verse x 7
End verse

| /  slide up
| \  slide down
| h  hammer-on
| p  pull-off
| ~  vibrato
| +  harmonic
| x  Mute note
=============================================================================
Comments