311 - You Wouldnt Believe Chords & Tabs

 

You Wouldnt Believe Chords & Tabs

311 Chords & Tabs

Version: 4 Type: Tab 0 ratings
1 star 2 stars 3 stars 4 stars 5 stars
comments

You Wouldnt Believe Tab

311 - You Wouldn't Believe
Album - From Chaos
standard tuning

Tabbed by Josh Kuai
caelumhades@hotmail.com

Any comments/suggestion would be appreciated, thanks.

-----------------------------------
----7-------7---------5--------5---
--5---5---5---5-----5---5---5----5-
7-------7---------5-------5--------
-----------------------------------
-----------------------------------

[ Tab from: http://www.guitartabs.cc/tabs/0-9/311/you_wouldnt_believe_tab_ver_4.html ]
-------------------------------------
-------------------------------------
----7-------7----------5-------------
--5---5---5---5-----5-----5----5---5-
7-------7--------5-----------5---5---
-------------------------------------
-------------------------------------

repeat throughout verse, then

--------------------------------
--------------------------------
--------------------------------  x4
7-8-10-12-14-15-14-12-----------
--------------------------------
--------------------------------

then in the chorus (it sounds right, but I'm not sure)

--------------------------------
--------------------------------
7-7-7---5-----------------------
7-7-7---5---7-7-7---------------  x4 (last time dont hit last chords)
5-5-5---3---7-7-7---------------
------------5-5-5---------------

Comments