311 - You Wouldnt Believe Chords & Tabs

 

You Wouldnt Believe Chords & Tabs

311 Chords & Tabs

Version: 1 Type: Bass Tab 0 ratings
1 star 2 stars 3 stars 4 stars 5 stars
comments

You Wouldnt Believe Bass Tab

   
#----------------------------------PLEASE NOTE---------------------------------#
#This file is the author's own work and represents their interpretation of the #
#song. You may only use this file for private study, scholarship, or research. #
#------------------------------------------------------------------------------##
                                You wouldn't believe
                                     By: 311
                                    (Bassline)
                            Score tabbed by: Bill Dunn

As easy as this song is, i'd figured i'd take the time anyway.                     

Tuning: Standard for 4 or 5 sting basses

This song can be played if you have a four or five string bass (even though
P-Nut uses a five string)  I was using a four, and no matter what you can
still play the song, it's just that easy.  Here's the main bassline that P-Nut
Plays usually, the rest you can have fun with.  Take the top or bottom
part depending on how many strings you have.


[ Tab from: http://www.guitartabs.cc/tabs/0-9/311/you_wouldnt_believe_btab.html ]
  Q  Q  E E E E   +E  Q  E Q  Q    Q  Q  E E E E   +E  Q  E E E Q
G|---------------|----------------|---------------|----------5---5-|
D|---------------|----------------|---------------|--------7---7---|
A|-5--5--5-5---3-|-(3)-3--3-3--3--|-5--5--5-5---3-|-(3)-3----3---3-|
E|---------------|----------------|---------------|--------5---5---|
B|-3--3--3-3---1-|-(1)-1--1-1--1--|-3--3--3-3---1-|-(1)-1----------|


Here's the cool part bridge thingy he does.


  Q  Q  E Q  E   +E  Q  E Q  Q    Q  Q    +Q.   S S   W
|--------------|-----4--5-4-----|-4-------------4-2-|-0----|
|-------4-5--7-|-(7)---------7--|----7----(7)-------|------|
|----5---------|----------------|-------------------|------|
|--------------|----------------|-------------------|------|
|--------------|----------------|-------------------|------|


  Q  Q  E Q  E   +E  Q  E Q  Q    Q  H.        Q.   S S H
|--------------|-----4--5-4-----|-4----------|-7----4-5-7---|
|-------4-5--7-|-(7)---------7--|----7-------|--------------|
|----5---------|----------------|------------|--------------|
|--------------|----------------|------------|--------------|
|--------------|----------------|------------|--------------|



***************************************************************************************
* Generated using Power Tab Editor by Brad Larsen - http://powertab.guitarnetwork.org *
***************************************************************************************
Comments