311 - You Get Worked Chords & Tabs

 

You Get Worked Chords & Tabs

311 Chords & Tabs

Version: 1 Type: Bass Tab 0 ratings
1 star 2 stars 3 stars 4 stars 5 stars
comments

You Get Worked Bass Tab

   
311 - You Get Worked
Tabbed By: rob
EMail: lbc311sk8er@msn.com
From Chaos

Intro:
======

G:---------
D:---------
A:---------
E:-5-3-----
B:-----5-4-

Riff 1:
=======

G:------------------
D:------------------
A:------------------
E:-5-3h5--5-3h5-3h5-
B:------------------

Riff 1a:
========

G:-------------------
D:-------------------
A:-------------------
E:-5-3h5-5-----------
B:---------5-6-5-6-5-

Riff 2:
=======

G:-----------------------------
D:-----------------------------
A:-----------------------------
E:-0-0-0-0--0-0-0-0--0-0-0-(0)-
B:-----------------------------

() every other time

Riff 3:
=======
[ Tab from: http://www.guitartabs.cc/tabs/0-9/311/you_get_worked_btab.html ]
G:--------------------
D:--------------------
A:--------3-4-6-------
E:-5-4-4--------4-4-4-
B:--------------------

Riff 3a:
========

G:-------------------
D:---------------(4)-
A:--------3-4-6------
E:-5-4-4----------2--
B:-------------------

() switches off with lower F#

Riff 4:
=======

G:-------------------
D:-------------------
A:-6--6--6--6--6-6-6-
E:-------------------
B:-------------------

Ending:
=======

G:-----
D:-----
A:-----
E:-5-4-
B:-----


Song Structure:
===============
Intro
Riff 1 (x3)
Riff 1a
Riff 1 (x3)
Riff 1a
Riff 2 (x4)
Riff 1 (x3)
Riff 1a
Riff 2 (x8)
Riff 1 (x3)
Riff 1a
Riff 2 (x4)
Riff 3 (x3)
Riff 3a
Riff 3 (x3)
Riff 3a
Riff 1 (x3)
Riff 1a 
Riff 2 (x8)
Riff 3 (x3)
Riff 3a
Riff 3 (x3)
Riff 3a
Riff 4 (x4)
Riff 3 (x3)
Riff 3a
Ending


Submitted by Rob Byrd 
lbc311sk8er@msn.com
Comments