311 - Will The World Chords & Tabs

 

Will The World Chords & Tabs

311 Chords & Tabs

Version: 1 Type: Tab 0 ratings
1 star 2 stars 3 stars 4 stars 5 stars
comments

Will The World Tab

 "Will The World" by 311
 From Enlarged To Show Detail 2

  Intro(Guitar 1)
 e----------------------------
 B----2-------2---2-----2-----
 G----------------------------
 D--4----4--4---4---4-----4---
 A----------------------------
 E--2----3--2---------2-----2-
 
  Other Part Played by guitar 1
 e----------------------------
 B----2------2---2-----2------
 G----------------------------
 D--4------4-------4-----4----
 A------4------4-----4-----4--
 E--2------2------------------
[ Tab from: http://www.guitartabs.cc/tabs/0-9/311/will_the_world_tab.html ]
  Solo (Guitar 2, clean)
 e-------------------------------------------------------------------------
 B-------------------------------------------------------------------------
 G-------------------------------------------------------------------------
 D--/9-7---------/9-7----------------4-6-4-4-6-6-4------4-6-4-4-6-6-4----4-
 A-------9/10\9-------9/10\9-----4/5----------------4/5----------------7---
 E---------------------------10--------------------------------------------

  Last part 
 e------------------------------------
 B--------------------------7-7--7-7--
 G--/7-6----/7-6---4/6\4--------------
 D-------7-------7--------------------
 A------------------------------------
 E------------------------------------ 

  Ending (let last note ring out)
 e----------------------
 B----2----2-----2------
 G----------------------
 D--4----4---4-----4----
 A----------------------
 E--2----2-----2-----2--

  When you play this song, don't play it exactly
 as I've written it out.
  I noticed that nobody had the tabs to this song 
 or "Dreamland" so I wrote those two out for you.
 Later.
Comments