311 - Will The World Chords & Tabs

 

Will The World Chords & Tabs

311 Chords & Tabs

Version: 1 Type: Bass Tab

Will The World Bass Tab

   
Artist: 311
Song: Will the World
Album: Enlarged to Show Detail 2 (2001)
Bassist: P-Nut
Tuning: B-E-A-D-G
Notes:

~ - Let Ring
  - Play gently and quietly

Whole Song:
G|---------------------------------------|
D|---------------------------------------|
A|--9~---------9~---------9~---------9~--|
E|--------7----------7----------7--------|
B|---------------------------------------|

G|-------------------------------------------|
D|-------------------------------------------|
A|--9~---------9~---------9~---------9~------|
E|------10---------10---------10---------10--|
B|-------------------------------------------|
[ Tab from: http://www.guitartabs.cc/tabs/0-9/311/will_the_world_btab.html ]
G|---------------------------------------|
D|---------------------------------------|
A|--9~---------9~---------9~---------9~--|
E|--------7----------7----------7--------|
B|---------------------------------------|

G|-------------------------------------------|
D|-------------------------------------------|
A|--9~---------9~---------9~---------9~------|
E|------10---------10---------10---------10--|
B|-------------------------------------------|

G|-------------------------------------------|
D|---------------------------------------9~--|
A|--9~---------9~---------9~---------9~------|
E|--------7----------7----------7------------|
B|-------------------------------------------|