311 - Whos Got The Herb Chords & Tabs

 

311 Chords & Tabs

Version: 1 Type: Tab 0 ratings
1 star 2 stars 3 stars 4 stars 5 stars
comments

Whos Got The Herb Tab

   
'Who's Got the Herb?'
Performed by 311
From the album "Hempilation" on Capricorn Records
Music by:  David Byers, Paul Hudson & Earl Hudson
Lyrics by:  David Byers, Paul Hudson, Earl Hudson, N. Hexum & D. Martinez
---------------
Tabbed by: Bud Ludwig (DLudwig311@aol.com)
Additions/Corrections by: Mitch Calvert (mit@net-connect.net)
Lyric Help by: M. Donnelly (mmd@PioneerPlanet.infi.net)
               Unknown (S0ULPHREAK@aol.com)
               Chase (sepulfloyd@hotmail.com)
               Chris Erickson (swedishchef999@hotmail.com)
The 311 Guitar Archive -- http://bigworm.colorado.edu/311archive/

NOTE:  This song is pretty much ad libbed.
       The following is not a note for note copy by any means.


Intro (part 1):
===============
   N.C.               G
1:----------------------|
2:--------------------3-|
3:--------------------4-|
4:-9---9---9-9-9-7----5-|
5:----------------------|
6:----------------------|

Intro (part 2):
===============
   (E5)         (D5)
1:-(12)-(12)----(10)-(10)-|
2:-(12)-(12)----(10)-(10)-|
3:------------------------|
4:------------------------|
5:------------------------|
6:------------------------|
   | harm |     | mute |

Riff 1:
=======
   E             N.C. E5       D             N.C. D5
1:-12------------16---12--12---10------------14---10--10---|
2:----12--------------12--12------10--------------10--10---|
3:-------13--------------------------11--------------------|
4:----------14--------------------------12-----------------|
5:---------------------------------------------------------|
6:---------------------------------------------------------|

Solo 1:
=======
   N.C.  E5          D5   N.C.                               E5 D5
1:-x-x-x-12-------12p10---10h12p10--12-10--------------------12p10--|
2:-x-x-x-12--12---12p10---------------------12-10-9\\--------12p10--|
3:-----------------------------------------------------9------------|
4:--------------------------------------------------------9---------|
5:------------------------------------------------------------------|
6:------------------------------------------------------------------|
[ Tab from: http://www.guitartabs.cc/tabs/0-9/311/whos_got_the_herb_tab.html ]
   N.C.                     (A11)          N.C.            (G11)
1:-12h14p12-14-16-14-12\\---12----------------16-14-12\\---10-------------|
2:-----------------------------12-----------------------------10----------|
3:--------------------------------12-----------------------------10-------|
4:-----------------------------------12----14-----------------------10----|
5:--------------------------------------12-----------------------------10-|
6:------------------------------------------------------------------------|

   N.C.                  (A11)          N.C.
1:-----14-12h14--14p12---12----------------16--14h16p14-12-11-|
2:--------------------------12--------------------------------|
3:-----------------------------12-----------------------------|
4:-12-----------------------------12----14--------------------|
5:-----------------------------------12-----------------------|
6:------------------------------------------------------------|

   (G11)          N.C.
1:-10----------------14-12h14--14p12-|
2:----10-----------------------------|
3:-------10--------------------------|
4:----------10----12-----------------|
5:-------------10--------------------|
6:-----------------------------------|

Solo 2:
=======
Not Available

Riff 2a:
=======
   E5    F#5 G5  E5 F#5 G5  E5 F#5 G5     E5  F#5 G5  E5 F#5 G5  C5   B5
1:------------------------------------------------------------------------|
2:------------------------------------------------------------------------|
3:------------------------------------------------------------------------|
4:---------------------------------------------------------------5-5--4-4-|
5:-2-2-2--4--5---2---4--5---2---4--5--5---2-2--4--5---2--4---5---3-3--2-2-|
6:-0-0-0--2--3---0---2--3---0---2--3--3---0-0--2--3---0--2---3------------|

Riff 2b:
========
   A5 E5           G5 E5          A5 E5         G5 E5   N.C.
1:------------------------------------------------------------|
2:------------------------------------------------------------|
3:------------------------------------------------------------|
4:------------------------------------------------------------|
5:-7--2--2--2-2-2--5--2-2--2-2-2--7--2-2--2-2-2-5--2-2--------|
6:-5--0--0--0-0-0--3--0-0--0-0-0--5--0-0--0-0-0-3--0-0--5-4-3-|

Outro:
======
   C5
1:--------------------------------------------------------------------|
2:--------------------------------------------------------------------|
3:--------------------------------------------------------------------|
4:-10-10-10--10--10--10-10-10--10--10--10-10-10--10--10--10-10-10--10-|
5:-10-10-10--10--10--10-10-10--10--10--10-10-10--10--10--10-10-10--10-|
6:--8--8--8---8---8---8--8--8---8---8---8--8--8---8---8---8--8--8---8-|

   C5         G#5
1:--------------|
2:--------------|
3:--------------|
4:-10--10-10\\6-|
5:-10--10-10\\6-|
6:--8---8--8\\4-|
Comments