311 - Whos Got The Herb Chords & Tabs

 

Whos Got The Herb Chords & Tabs

311 Chords & Tabs

Version: 1 Type: Bass Tab 0 ratings
1 star 2 stars 3 stars 4 stars 5 stars
comments

Whos Got The Herb Bass Tab

311
Song:  Who's Got the Herb?
Album:  311 Live
Tabbed by:  Stephen Short(sms_stylee@yahoo.com)

P-nut uses a 5-string but this can easily be play with a 4-string 
in dropped D.  I left the old tab at the bottom because there's 
another version on the first Hempilation CD and I've only heard it
once so it might be tabbed for that version, but anyway, mine is for
the Live version.


Intro:
                         "Two for one, five for four..."
G|-------------------|-------------------------------------------
D|-9-9--9-9-9-7------|---------9----------7---------9----------7-
A|---------------10~-|----7-7-X--7-7--5-5---5-5-7-7---7-7-X5-5---
D|-------------------|-------------------------------------------

G|---------------------------------------------------
D|------------9-------------7------------------------
A|-5-5-X7-5-7---7-7--X5-3-5---5-5--7--7--7--5--3-5-5-
D|---------------------------------------------------


1st Verse:
   "What are we looking for..."
G|---------------------------------------------------------------
D|-------------------------------7-------------------------------
A|-X7--7-7--5--X5-5--7-7--X7--X5---5--7-7--7--7---X5-5--X5--X5X5-
D|---------------------------------------------------------------

G|--------------------------------------------------7----------
D|---------------------------------------------------------7---
A|-7-7--7--7---X5-5--X5--X5X5--7-7--7--7--7--XX5--X5---X5----5-
D|-------------------------------------------------------------


*1st Chorus:
   "Who's got the herb..."
G|--------------7---------7----------------7---------7---
D|---------------7---------7----------------7---------7--
A|-X7-7--7--7-----5--X5--5--5--7-7--7--7-----5--X5--5--5-
D|-------------------------------------------------------

G|---------------------------7----------------7---------7---
D|----------------------------7----------------7---------7--
A|-X7-7--X7-X7-7--X5-5--X5--5--5--7-7--7--7-----5--X5--5--5-
D|----------------------------------------------------------


2nd Verse:
   "Skunk, bud, indica..." 
G|--------------7---------7-----------------7-------7---------7-
D|---------------7---------7-----------------7-------------7----
A|-X7-7--7--7-----5--X5--5--5--7-7-7-7--7-----5--X5---5--5---5--
D|--------------------------------------------------------------

G|------------7---------7-------------------------7----------
D|-------------7---------7------------------------------7-7--
A|-7-7--7--7----5--X5--5--5--7-7-7-7--7-7--5-5--X5--5-5--5-5-
D|-----------------------------------------------------------


1st Interlude:
   "When we roll a big one..."
G|--------------------------------7--------------------------
D|---------------------------------7-------------------------
A|-X7-7----5--5--5--7~---5-5--5--5--5--7-7--7--5-5--5---7-7~-
D|-----------------------------------------------------------

G|---------7----------
D|---------------7-7--
A|-X5-5--X5--5-5--5-5-
D|--------------------
[ Tab from: http://www.guitartabs.cc/tabs/0-9/311/whos_got_the_herb_btab.html ]
2nd Chorus:
   "Who's got the herb..."
G|--------------7---------7----------------7---------7---
D|---------------7---------7----------------7---------7--
A|-X7-7--7--7-----5--X5--5--5--7-7--7--7-----5--X5--5--5-
D|-------------------------------------------------------

G|-------------7-----------------------------7---------7---
D|--------------7---------7-------------------7---------7--
A|--7-7-7-7--7----5--X5-X5---5-5-7-7--7--7-----5--X5--5--5-
D|---------------------------------------------------------


2nd Interlude:
   "Who's  got the h~~e~~r~~b..."
G|------------------------------------------7--
D|-----------------------------------------7---
A|-7-7----7-7----7-7----5--5--X5-5-7-7----5--5-
D|---------------------------------------------


3rd Verse:
   "Grab my ka-kra-kai-ya-ka.."
G|-------------7---------7-----------------7--------------
D|--------------7---------7-----------------7---------7-7-
A|-X7-7--7-X7----5--x5--5--5--X7-7--7--7-----5--X5--X5-5--
D|--------------------------------------------------------

G|-------------7-----------------------------7-----------------
D|--------------7---------7-------------------7-------7-----7--
A|-X7-7--7--7----5--x5--X5-5-5--X7-7--7--7-----5--X5-5-5-5-5-5-
D|-------------------------------------------------------------

Outro:
   "Who's got it.."
G|------------------------------------------------------
D|------------------------------------------------------
A|------------------------------------------------------
D|-2-2--2-2--0-0--0-0--2-2--2-2--0-0--0-0--2-2--2-2--0~-

                                (7--)
                                (-7-)
*In the fast little 3 note rakes(--5) you see in parts of the 
verse and chorus you play the first 7 on the G-string as more
of a muted note, kind of like a harmonic.  This is a fairly 
easy song to play once you learn the little variations, so sit
down, light one up, and give it a try.  Check out my band's 
site at http://syngd.20m.com
                         
_________________________________________________________________

311
Who's Got the Herb?

  intro
1:-----------------------------
2:--9--9--9-9-9--7-------------
3:-----------------10----------
4:-----------------------------
5:-----------------------------

  main riff -- variation ( these are the main notes he uses,also listen
                           for the octaves and the rythymn)

1:--------------
2:--------------
3:----7-7--5-5--
4:--------------
5:--------------


variation

1:-9----7-------
2:--9----7------
3:---7----5-----
4:--------------
5:--------------

2nd part of the song

"Who's got the herb"

riff 1
1:------------------------------------------------------
2:------------------------------------------------------
3:------------------------------------------------------
4:-0-2-3-0-2-3--0-2-3-3--3-0-2-3-0-2-3------------------
5:-------------------------------------1-1-0-0----------

riff 2
1:--------------------------------------------------
2:--------------------------------------------------
3:--------------------------------------------------
4:-5--0-0-0-0--3--0-0-0-0--5--0-0-0-0--3--0-0--5-4-3
5:--------------------------------------------------

outro
1:---------------------
2:---------------------
3:---------------------
4:---------------------
5:-1-1-1-1-1-1-1-1-1-1-

Jason A Borgmann 
Comments