311 - What Was I Thinking Chords & Tabs

 

What Was I Thinking Chords & Tabs

311 Chords & Tabs

Version: 1 Type: Tab 0 ratings
1 star 2 stars 3 stars 4 stars 5 stars
comments

What Was I Thinking Tab

          311 What was I Thinking             On transistor
          
          Intro:
          e |-------------------------
          b |-------------------------
          g |-------------------------
          D |-------------------------
          A |-4-4-4-4-4-4-------------
          E |-2-2-2-2-2-2-------------
          
          
          Verse:
          e |-------------------
          b |-------------------
          g |-------------------
          D |-------------------
          A |-3-2-2--3-2-2-2-2--
          E |-1-0-0--1-0-0-0-0--
          
          
          Interlude
          e |----------------------------------------------------
          b |----------------------------------------------------
          g |----------------------------------------------------
          D |----------------------------------------------------
          A |----------0h5h7----------0h5h7-----------0h5h7------
          E |---0h5h7----------0h5h7----------0h5h7-----------0--
          
          
          
          If you want to be in a band and live in South Eastern Pa, Email me,
          From Chris Holbrook        hhhardcore
[ Tab from: http://www.guitartabs.cc/tabs/0-9/311/what_was_i_thinking_tab.html ]
Comments