311 - We Do It Like This Chords & Tabs

 

We Do It Like This Chords & Tabs

311 Chords & Tabs

Version: 1 Type: Tab 0 ratings
1 star 2 stars 3 stars 4 stars 5 stars
comments

We Do It Like This Tab

   
'We Do It Like This'
Performed by 311
A Studio Outtake from the "From Chaos" Album
Music by:  [Unknown]
Lyrics by:  [Unknown]
(c) 2000/2001 Hydroponic Music BMI
---------------
Tabbed by: Ryan Abts (PhishHippo@aol.com)
Additions/Corrections by: Michael Slusarz (slusarz@bigworm.colorado.edu)
Lyric Help by: Nobuyuki Suga (nsuga@pluto.dti.ne.jp)
               shanez (perplexy484@aol.com)
The 311 Guitar Archive -- http://bigworm.colorado.edu/311archive/


Riff 1 (w/Distortion and Octaver):
==================================
   N.C.
e:-----------------------|
B:-----------------------|
G:-----------------------|
D:-----------------------|
A:---4---4-------4-----4-|
E:-4---3---2---2---3-4---|
   | P.M.|     | P.M.|

Chorus (w/Distortion):
======================
   (C#)
e:----------------|
B:----------------|
G:----------6--6b-|
D:----------------|
A:-4-4-4-4--4--4b-|
E:----------------|
[ Tab from: http://www.guitartabs.cc/tabs/0-9/311/we_do_it_like_this_tab.html ]
Riff 2 (w/Distortion):
======================
   N.C.
e:-----------------------------------------------|
B:-----------------------------------------------|
G:-6h7p6h7p6h7p6h7p6-6\\---6h7p6h7p6h7p6h7p6-6\\-|
D:-----------------------------------------------|
A:-----------------------------------------------|
E:-----------------------------------------------|

   N.C.
e:------------------------------------|
B:------------------------------------|
G:-6h7p6h7p6h7p6h7p6-6\\---6-7-9-7-6b-|
D:------------------------------------|
A:------------------------------------|
E:------------------------------------|

Bridge (w/Distortion & Octaver):
================================
   N.C.
e:---------------------------------------|
B:---------------------------------------|
G:---------------------------------------|
D:---------------------------------------|
A:------------------4------------------4-|
E:-4--3--2----2--3-------4--3--2----2----|
Comments