311 - Wake Your Mind Up Chords & Tabs

 

Wake Your Mind Up Chords & Tabs

311 Chords & Tabs

Version: 1 Type: Tab 0 ratings
1 star 2 stars 3 stars 4 stars 5 stars
comments

Wake Your Mind Up Tab

   
311 - wake up your mind 
Tabbed by TCcracker84 (www.tccracker84.com)


<#>=naturalharmonic  
h=hammeron  
p=pull off  

Intro/Chorus  
1:--------  
2:--------  
3:--------  
4:--------  
5:-4---4-4  
6:---4---- 

Riff 1  
1:-----------------------------  
2:-----------------------------  
3:-----------------------------  
4:----------------------------22-x-2  
5:-4-4-x-------1h2p1p0-0-00-x-00-x-0  
6:-------4-4-x-----------------  
[ Tab from: http://www.guitartabs.cc/tabs/0-9/311/wake_your_mind_up_tab.html ]
Riff 2  
1:---------------------------------------  
2:---------------------------------------  
3:---------------------------------------  
4:-------------------------------2-2--------  
5:-2----------2-x-5-5-1h2p1p0-2-0-0-2-3-2-3  
6:-0-<3><3>-0-x-3-3----------------------  

Riff 3  
1:------------------------------------------  
2:------------------------------------------  
3:------------------------------------------  
4:------------------------------------------  
5:-2--------2-x-5-5-1h2p1p0-2-1-2-1-22-1-2-7  
6:-0-<3><3>-0-x-3-3-------------------------  

Riff 4  
5:-0-1-0-2-1-0-1-7  
6:----------------  

bridge  
5:-2-2-2  
6:-0-0-0  

other part  
5:-7-7---------------       (Iím just totally guessing  
6:-----7-7-5-5-3-3-2-0        on this part)  

solo:(unavailable)
Comments