311 - Visit Chords & Tabs

 

Visit Chords & Tabs

311 Chords & Tabs

Version: 1 Type: Bass Tab 0 ratings
1 star 2 stars 3 stars 4 stars 5 stars
comments

Visit Bass Tab

'Visit' - Bass Tab
Performed by 311
From the album "Music" on Capricorn Records
Music by:  N. Hexum, C. Sexton, T. Mahoney, A. Wills
Lyrics by:  N. Hexum & D. Martinez
(c) 1993 Allegiance Music/Hydroponic Music BMI
----------
Tabbed by: Springer (DSPRiNGR@aol.com)


Intro:
======

1:----------------------------------------------------------
2:----------------------------------------------------------
3:---0-2-3-3-2-----0-----0---------0-2-3-3-5-2--3-2-0-3-2-0-
4:-0-----------b3b---0-0---0-0-000--------------------------

1:---------------------------------------------
2:---------------------------------------------
3:---0-2-3-3-2-----0-----0---------0-2-3-3-5-2-
4:-0-----------b3b---0-0---0-0-000-------------

1:---------------------------------------
2:---------------------------------------
3:-7777------7777------7777------77777//-
4:------5555------5555------5555---------


Verse:
======

1:-------------------------
2:-------------------------
3:-------------------------
4:-0--3--5--6--5--2h3--2h3-


"The Sun Is Goin'..."
=====================

1:---------------------------
2:---------------------------
3:---------------------------
4:-2-2-0-2-3-2-0-2-0-2-3-2-0-


Chorus:
=======
                           
1:-----------------------        -----------
2:-----------------------        -----------
3:-0-0-0-0--0-0--4-2-4-5- end w/ -4-2-4-5-2-
4:-----------------------        -----------

[ Tab from: http://www.guitartabs.cc/tabs/0-9/311/visit_btab.html ]
Fill 1:
=======

1:---------------
2:---------------
3:-2-0---0-------
4:-----3---3-2-3-


Bridge:
=======

1:-----------------
2:-----------------
3:-2-------2-0---0-
4:---2-3-5-----3---


Solo:
=====

1:-----------------------------------------------------------------
2:-----------------------------------------------------------------
3:-----------------------------------------------------------------
4:-0-3-2-3-5-3-2-3-6-5-3-5-3-2-3-2--0-3-2-3-5-3-2-3-6-5--3-3-3-3-3-

1:-----------------------------------------------
2:-----------------------------------------------
3:-----------------------------------------------
4:-0-3-2-3-5-3-2-3-6-5-3-5-3-2-3-2-0-3-2-3-5-3-2-

1:--------------------------------------
2:--------------------------------------
3:--------------------------------------
4:-6-6-6-6-6-6-6-6-6-6-6-6--3-3-3-3-3-3-
  | Gtr | Bass| Gtr | Bass|


Ending:
=======

1:---------------------------------------------
2:-------4-4-4-------7-7-7-5h7-------4-4-4---7-
3:-2-2-2-------5-5-5-----------2-2-2-------5---
4:---------------------------------------------

1:-----------------------------------------------2-------------2---------------
2:-------2-2-2-----------------------2-2-2-------------------------------------
3:-0-0-0-------4-4-4-5-5-5//7--0-0-0-------4--5----4-4-4-5-5-5---4-4-4-5-5-7---
4:---------------------------------------------------------------------------5-


== Last Updated:  July 12, 1997 ==

Comments