311 - Use Of Time Chords & Tabs

 

Use Of Time Chords & Tabs

311 Chords & Tabs

Version: 3 Type: Bass Tab

Use Of Time Bass Tab

   
Artist: 311
Song: Use of Time
Album: Transistor (1997)
Bassist: P-Nut
Tuning: B-E-A-D-G
Notes:


Intro/Verse 1:
G|---------------------------------------------|
D|----------------------2~--2-----2~----2---2--|
A|--3~--------3~-------------------------------|
E|----------------------0~--------0~--0---0----|
B|--1~--------1~-------------------------------| (x8)


Pre-Chorus:
G|--9-----------------------------|
D|----9---------7---7-------------|
A|------7---------7---7--3---3----|
E|--------7-0--------------3---3--|
B|--------------------------------| (x3)

G|--9--------------|
D|----9------------|
A|------7----------|
E|--------7-0-0-5--|
B|-----------------|


Chorus:
G|----------------------------------|
D|------------2-0----------------2--|
A|----------------3-----------------|
E|------------------0~---0--2--3----|
B|--1~---1~-------------------------| (x2)


Guitar Solo:
G|-------------------------------------------------------------------|
D|--------------------------2-0-----------------------------------2--|
A|------------------------------3------------------------------------|
E|--------------------------------0-0-0-0-0-0-0-0-0-0-0-0-0--2--3----|
B|--1-1-1-1-1-1-1-1-1-1-1-1------------------------------------------|
[ Tab from: http://www.guitartabs.cc/tabs/0-9/311/use_of_time_btab_ver_3.html ]
G|-----------------------------------------------------------------------|
D|--------------------------2-0------------------------------------------|
A|------------------------------3----------------------------------------|
E|--------------------------------0-0-0-0-0-0-0-0-0-0-0-0-0--0--0--0--0--|
B|--1-1-1-1-1-1-1-1-1-1-1-1----------------------------------------------|


Post-Chorus:
G|--9-----------------------------|
D|----9---------7---7-------------|
A|------7---------7---7--3---3----|
E|--------7-0--------------3---3--|
B|--------------------------------| (x3)

G|--9--------------|
D|----9------------|
A|------7----------|
E|--------7-0-0-5--|
B|-----------------|


Verse 2:
G|---------------------------------------------|
D|----------------------2~--2-----2~----2---2--|
A|--3~--------3~-------------------------------|
E|----------------------0~--------0~--0---0----|
B|--1~--------1~-------------------------------| (x3)


Pre-Chorus:
G|--9-----------------------------|
D|----9---------7---7-------------|
A|------7---------7---7--3---3----|
E|--------7-0--------------3---3--|
B|--------------------------------| (x3)

G|--9--------------|
D|----9------------|
A|------7----------|
E|--------7-0-0-5--|
B|-----------------|


Guitar Solo/Outro:
G|----------------------------------|
D|------------2-0----------------2--|
A|----------------3-----------------|
E|------------------0~---0--2--3----|
B|--1~---1~-------------------------| (x2)

G|-------------------------------------------------------------------|
D|--------------------------2-0-----------------------------------2--|
A|------------------------------3------------------------------------|
E|--------------------------------0-0-0-0-0-0-0-0-0-0-0-0-0--2--3----|
B|--1-1-1-1-1-1-1-1-1-1-1-1------------------------------------------|

G|----------------------|
D|------------2-0-------|
A|----------------3-----|
E|------------------0~--|
B|--1~---1~-------------|