311 - Unity Chords & Tabs

 

Unity Chords & Tabs

311 Chords & Tabs

Version: 2 Type: Bass Tab 0 ratings
1 star 2 stars 3 stars 4 stars 5 stars
comments

Unity Bass Tab

"Unity" -- Bass Tab
Performed by 311
From the album "Music" on Capricorn Records
Music by:  N. Hexum & C. Sexton
Lyrics by:  N. Hexum
(c) 1995 Allegiance Music/Hydroponic Music BMI
---------------
Tabbed by: Daniel Alonzo (isoscele@hiline.net)
           Olivia Pacilio (edpac@mnsinc.com)
311 Guitar Archive - http://chromosome.colorado.edu/311archive/Home.html


G|----------------------------------------|
D|----------------------------------------|
A|--3-2---0--3-2---0--3-2---0--0-0--5--3--|
E|------3--------3--------3---------------|


G|----------------------------------------|
D|----------------------------------------|
A|--3-2---0--3-2---0--3-2---0--0-0--------|
E|------3--------3--------3---------1--3--|
[ Tab from: http://www.guitartabs.cc/tabs/0-9/311/unity_btab_ver_2.html ]
                                                        
G|----------------------------------------------------|------------|
D|----------------------------------------------------|------------|
A|--0-0-----0---0-0-0--5--3--0-0-----0----0-0-0-------|------------|
E|------0-3----------------------0-3------------1--3--|-1--3--1--3-|

  -- or --

G|----------------------------------------------|------------|
D|----------------------------------------------|------------|
A|-------------------4-2------------------------|------------|
E|--5-5-0-3-5--5-5-5------5-5-0-3-5--5-5-5-1-3--|-1--3--1--3-|


G|------------------------|
D|------------------------|
A|------------------------|
E|--0----7-----4---5---4--|

-- or --

G|---------------------------------|
D|---------------------------------|
A|---------2-2-2-------------------|
E|--0-0-0---------4-4-4--5-5--4-4--|


  (Play this 4 times)
G|----------------------|
D|----0----------1------|
A|-----------2-4---4-2--|
E|--2---4--4------------|

G|---------------|
D|--------1------|
A|----2-4---4-2--|  ===> 4th Time end on:  A|---0----|
E|--4------------|

G|-\\\\\\\\\\\\\---\\\\\\\\\\\\----14-14--14-14--|
D|-\\\\\\\\\\\\\---\\\\\\\\\\\\------------------|
A|-----------------------------------------------|
E|-----------------------------------------------|


== Last Updated:  May 20, 1997 ==
Comments