311 - Uncalm Chords & Tabs

 

Uncalm Chords & Tabs

311 Chords & Tabs

Version: 2 Type: Tab 0 ratings
1 star 2 stars 3 stars 4 stars 5 stars
comments

Uncalm Tab

   
"Uncalm"
311
from the album FROM CHAOS
GUITAR 1: Tim Mahoney - GUITAR 2: Nick Hexum
tabbed by: Patrick Barley
e-mail: pbj_2005@msn.com 
Standard tunning: e, a, d, g, b, e

 
This is a very cool song & its 100% accurate. It is good if you can get the 
right timing for everything. Listen to it, the whole c.d is great.  


|===============|
| i=	imphasize|
| r=	rest     |
|===============|    
            
GUITAR 1
intro/chorus: play near the tremelo. clean with slight slight echo.	  
----------------------------------|-----------------------------|                                                                  
----------------------------------|-----------------------------|
----------------------------------|-----------------------------| 3x
----------------------------------|-----------------------------|
----------2------2--3--2-----2----|----------2------2--3--------|
-2--4--5-----0------------0-----0-|-2--4--5-----0---------0--2--|
             ^let ring                           ^let ring
 

GUITAR 2
verse/chorus: start after the intro is played 1 time. this has to exact on time with up top.	
----------------------------------------------------------------------------------------|
----------------------------------------------------------------------------------------| 
----------------------------------------------------------------------------------------|
--------------------------------------------------------------------------------4-4-4-4-|
-2---2-------2---2-------2---2-------2-0-2--2---2-------2---2-------2---2-------4-4-4-4-|
-0---0-------0---0-------0---0-------0-0-0--0---0-------0---0-------0---0-------2-2-2-2-|
p.m......................................................................       i i i i

                         "uncaaaaaaaaalm.....uncaaalm............"
----------------------------------------------------------------------------------------|
----------------------------------------------------------------------------------------| 
----------------------------------------------------------------------------------------|
--------------------------------------------------------------------------------4-------|
-2---2-------2---2-------2---2-------2-0-2--2---2-------2---2-------2---2-------4-------|
-0---0-------0---0-------0---0-------0-0-0--0---0-------0---0-------0---0-------2-------|
 p.m.....................................................................       ^let ring           



GUITAR 1&2
2nd verse: after 2 times GTR.2 kicks in. regular dist.
[ Tab from: http://www.guitartabs.cc/tabs/0-9/311/uncalm_tab_ver_2.html ]
"listen to the drummer................"
----------------------------------------------|
----------------------------------------------|
-----------------6--6-------------------------|  4x  
--r7-7-7-7-7-7-7------r7-7-7-7-7-7-7-6--6-----| 
---0-0-0-0-0-0-0-------0-0-0-0-0-0-0----------|
----------------------------------------------|
   p.m..........        p.m..........



GUITAR 1&2
3rd verse: heavier dist. after 2 times guitar 2 kicks in.

"Its like,  you and me........"
----------------------------------------------|        --------|
----------------------------------------------|        --------|
----------------------------------------------|   4x   --------| < on the 4th time.
----------------------------------------------|        --6--6--|
-----------------4--4-------------------------|        --6--6--|
--r5-5-5-5-5-5-5------r5-5-5-5-5-5-5-4--4-----|        --4--4--|
   p.m..........       p.m...........




GUITAR 1
Pre-chorus: regular dist.  
--------------------------------------------------|
--------------------------------------------------|
--------------------------------------------------|
--------------------------------------------------|
-4-4-4-----4-4-4-------4-4-4-------------------4--|
-------5-4---------5-4--------5-4--5-2-4-5-4-2----|
                                               i       3x
----------------------------------------------------|
----------------------------------------------------|
----------------------------------------------------|
----------------------------------------------------|
-4-4-4-----4-4-4-4-------4-4-4-------------------4--|
-------5-4---------5-4----------5-4--5-2-4-5-4-2----|
                                                 i


Then go back to 2ND VERSE 2X
                3RD VERSE 2X

Then go back to PRE-CHORUS 3X


GUITAR 1
Chorus: at this part there are 2 guitars. 1 is Tim with clean
and the other is probably just recorded over by him in distortion
----------------------------------|-----------------------------|                                                                  
----------------------------------|-----------------------------|
----------------------------------|-----------------------------| 2x
----------------------------------|-----------------------------|
----------2------2--3--2-----2----|----------2------2--3--------|
-2--4--5-----0------------0-----0-|-2--4--5-----0---------0--2--|
             ^let ring                          ^let ring    


GUITAR 2
Chorus: heavy dist. on the last time, hit the 244--- one time and ring out. 
--------------------------------------------------------------------------------|
--------------------------------------------------------------------------------| 
--------------------------------------------------------------------------------| 2x
------------------------------------------------------------------------4-4-4-4-|
-2---2-------2---2-------2---2-------2-0-2-------2---2-------2---2------4-4-4-4-|
-0---0-------0---0-------0---0-------0-0-0-------0---0-------0---0------2-2-2-2-|
 p.m..............................................................      i i i i

Thats it! have fun.
Comments