311 - Tribute Chords & Tabs

 

Tribute Chords & Tabs

311 Chords & Tabs

Version: 1 Type: Tab 0 ratings
1 star 2 stars 3 stars 4 stars 5 stars
comments

Tribute Tab

   
 Song: Tribute
 Artist: 311
 Album: Live!
 Comments/Corrections: breeman@dreamtheater.zzn.com
 Tabbed by: Jeff Nixon
 Key

 X = Mute

 ~~~~ = Let Ring

 ==== = Slide


	Intro
                                            1st
 e|---------|--------------------------------------|
 B|---------|--------------------------------------|
 G|---------|--------------------------------------|
 D|---------|--------------------------------------|
 A|---------|--------------------3--5--6--5--3--3--|
 E|-3--1--3-|--5--7--8--7--5--5--------------------|
			(4 Times)

 This one is dedicated to the excitable ones
 not the possums playing dead messing with my head
 "X" amount of action, "X" amount of game
 for years again I tell you the same, ooh ooh oooh


	Verse 1

 e|----------------------------------|
 B|----------------------------------|
 G|----------------------------------|
 D|----------------------------------|
 A|----------------------------------|
 E|-4--3--3--1---3--3--0--1--0--1--0-|

	(4 Times)

 Gone already
 to the bored of it all type lingo that I'm seein'
 every single night I'm out
 bustin' heads for it
 but yours gets busted right back, lip split and


	Verse 2

 e|--------------------|-----------------------|
 B|--------------------|-----------------------|
 G|--------------------|-----------------------|
 D|--------------------|-----------------------|
 A|--X--X--8--X--X--6--|--X--X--10--X--X--6----|
 E|--------------------|-----------------------|

(1st, 2nd, 3rd, 5th, 	 (4th, and 8th Times) 
  6th, and 7th Times) 

 I messed up
 but I got back tryin, don't bother lyin bout
 constant disappointment
 but the fun is in the hunt
 so quit actin on a front, yeah


	Verse 3

 e|---------------------------|----------------------|
 B|---------------------------|----------------------|
 G|---------------------------|----------------------|
 D|---------------------------|----------------------|
 A|---------------------------|----------------------|
 E|13===7--8--7--9--10--9--5--|--5--6--5--7--8--7--5-|

	(2 Times)		    (2 Times)

 you're unmotivated, you're sorta faded
 but the remedy is not so get on with what you got


	Riff A

 e|-------------------------------------------------------|
 B|-------------------------------------------------------|
 G|-------------------------------------------------------|
 D|-------------------------------------------------------|
 A|--4--------2--------2--0----4-------2--------0-------0-|
 E|-----5--3-----2--3------------5--3-----2--3------------|
			(4 Times)


 Remember "Lady of Guadeloupe"
 the times mother made mole and
 after mass we would get home
 the girls running to the phone
 and in my bedroom, the 45 on my record player was
 "we're in this love together"
 at the time I never realized how songs
 haunted the ones that I heard, I played because I wanted
 drawing on my wall from time to time coolin'
 making creatures come alive with no schoolin'


	Verse 4 (2 X)

 e|-------------------------------|
 B|-------------------------------|
 G|-------------------------------|
 D|-------------------------------|
 A|------0-----0------0----0----0-|
 E|--3-----3------3-----2----3----| 

 1. When I'm on the microphone the method that I make is much 
 2. in comin' in hot forgot, you definently got no 

 e|------------------------------|
 B|------------------------------|
 G|------------------------------|
 D|------------------------------|
 A|-----0-----0------0----0----0-|
 E|--2-----2------2-----1----2---|
[ Tab from: http://www.guitartabs.cc/tabs/0-9/311/tribute_tab.html ]
 1. patience the method that I make is much 
 2. clue in comin' in hot you got, you definently got so

 e|------------------------------|
 B|------------------------------|
 G|------------------------------|
 D|------------------------------|
 A|-----0-----0------0----0----0-|
 E|--1-----1------1-----0----1---|

 1. patience I wait for the beat and then I 
 2. rude boy actin coy but you got nuts like almond joy I tell ya,

 e|------------------------------|
 B|------------------------------|
 G|------------------------------|
 D|------------------------------|
 A|------0-----0-----0--0--0-----|
 E|--0------0-----0-----------3--|

 1. make sense
 2. this is a tribute


 Intro

 No one looks as foolish as the excitable ones
 but then again there's no one who has as much fun
 "X" amount of action, "X" amount of game
 for years again I tell you the same, ooh ooh oooh


 Verse 1

 Once I met a man who made nearly no mistakes
 he would never bet on a longshot
 and he'd never bet on a break and
 he's condescending and talks gossip galore
 but the dude was definently such a bore, hear me now


	Verse 2 (Changed)

 e|--------------------|
 B|--------------------|
 G|--------------------|
 D|--------------------|
 A|--X--X--8--X--X--6--|
 E|--------------------|

	(8 Times)

 I messed up
 but I got back tryin, dont bother lyin bout
 constant disappointment
 but the fun is in the hunt
 so quit actin on a front, yeah


 Verse 3

 you're unmotivated, you're sorta faded
 but the real man is not the one hiding behind the gunshot, boom!


 Riff A

 Time travelin through my memories
 there's a younger Doug gazin' at the galaxy
 space trippin' vato of the stars
 searchin' for UFO's from Neptune and Mars
 ode to an alien, I know you're out there
 cosmic lonely heart, tell me if you care
 I'm listening for your sound, here on the ground
 I'm listening for your sound, here on the ground


 Verse 4

 When I'm on the microphone
 the method that I make is much patience
 the method that I make is much patience
 I wait for the beat and then I make sense
 in comin' in hot forgot, you definently got no clue
 in comin' in hot you got, you definently got so rude
 boy actin coy but you got nuts like almond joy
 I tell ya, this is a tribute

	Outro

 e|----------------------------------------|
 B|----------------------------------------|
 G|----------------------------------------|
 D|----------------------------------------|
 A|--5--5---5---4-4--4---3--3--5-3--3-3--5-|
 E|--3--3---3---2-2--2---1--1--3-1--1-1--3-|

 e|----------------------------------------|
 B|----------------------------------------|
 G|----------------------------------------|
 D|----------------------------------------|
 A|--5--5---5---4-4--4---3--3--5-3--3-3--5-|
 E|--3--3---3---2-2--2---1--1--3-1--1-1--3-|

 I'm vexing many mofos but i'm wishing you the best

 e|----------------------------------------|
 B|----------------------------------------|
 G|----------------------------------------|
 D|----------------------------------------|
 A|--5--5---5---4-4--4---3--3--5-3--3-3--5-|
 E|--3--3---3---2-2--2---1--1--3-1--1-1--3-|

 I keep bout half my lyrics and I throw out the rest

 e|------------------------------------------|
 B|------------------------------------------|
 G|------------------------------------------|
 D|------------------------------------------|
 A|--5--5---5---4-4--4---3--3--5-3--3-3-3~~~~|
 E|--3--3---3---2-2--2---1--1--3-1--1-1-1~~~~|

 (This time play slowly and let ring at end)

 cause fly on by, you can if you want to
 the method that makes sense is patience 
Comments