311 - Tribute Chords & Tabs

 

Tribute Chords & Tabs

311 Chords & Tabs

Version: 3 Type: Bass Tab

Tribute Bass Tab

   
Artist: 311
Song: Tribute
Album: Enlarged to Show Detail 1 (1996)
Bassist: P-Nut
Tuning: B-E-A-D-G
Notes:


Verse 1:
G|-----------------------------------------------------|
D|-------0-2-3-2-0-0--------------0-2-3-2-0-0----------|
A|-------------------0-2-3-2------------------0-2-3-2--|
E|--3-3----------------------3-3-----------------------|
B|-----------------------------------------------------| (x2)

G|-----------------------------------------------|
D|-----------------------------------------------|
A|-----------------------------------------------|
E|--3-3-1---3-3--0-1-0-1---3-3-1---3-3--0-1-0-1--|
B|-----------------------------------------------| (x4)


Chorus:
G|-----------------------------------------------------|
D|-----------------------------------------------------|
A|--------5-6-5---------------------5-6-5--------------|
E|--6-6-6-------4--4-4--4-4---6-6-6-------4--4-4--4-4--|
B|-----------------------------------------------------|

G|-----------------------------------------------------|
D|-----------------------------------------------------|
A|--------4-5-4---------------------4-5-4--------------|
E|--5-5-5-------3--3-3--3-3---5-5-5-------3--3-3--3-3--|
B|-----------------------------------------------------|


Verse 2:
G|----------------------------------------|
D|----------------------------------------|
A|--3-2-0-2-----2-0--0--3-2-0-2-----0--0--|
E|----------0-2-----------------0-2-------|
B|----------------------------------------| (x4)


Bridge:
G|-------------------------------------------------------------|
D|-------------------------------------------------------------|
A|----0-----0-----0-----0-----0-----0-----0-----0-----0-----0--|
E|--3----3------3-----3-----3-----2----2------2-----2-----2----|
B|-------------------------------------------------------------|

G|------------------------------------------------------------|
D|------------------------------------------------------------|
A|----0-----0-----0-----0-----0-------------------------------|
E|--1----1------1-----1-----1-----0---5-0-0-5---5-4---4--4-4--|
B|------------------------------------------------------------|

G|-------------------------------------------------------------|
D|-------------------------------------------------------------|
A|----0-----0-----0-----0-----0-----0-----0-----0-----0-----0--|
E|--3----3------3-----3-----3-----2----2------2-----2-----2----|
B|-------------------------------------------------------------|

G|------------------------------------------------------------|
D|------------------------------------------------------------|
A|----0-----0-----0-----0-----0-------------------------------|
E|--1----1------1-----1-----1-----0---5-0-0-5---5-4---4--4-4--|
B|------------------------------------------------------------|


Verse 3:
G|-----------------------------------------------------|
D|-------0-2-3-2-0-0--------------0-2-3-2-0-0----------|
A|-------------------0-2-3-2------------------0-2-3-2--|
E|--3-3----------------------3-3-----------------------|
B|-----------------------------------------------------| (x2)
[ Tab from: http://www.guitartabs.cc/tabs/0-9/311/tribute_btab_ver_3.html ]
G|-----------------------------------------------|
D|-----------------------------------------------|
A|-----------------------------------------------|
E|--3-3-1---3-3--0-1-0-1---3-3-1---3-3--0-1-0-1--|
B|-----------------------------------------------| (x4)


Chorus:
G|-----------------------------------------------------|
D|-----------------------------------------------------|
A|--------5-6-5---------------------5-6-5--------------|
E|--6-6-6-------4--4-4--4-4---6-6-6-------4--4-4--4-4--|
B|-----------------------------------------------------|

G|-----------------------------------------------------|
D|-----------------------------------------------------|
A|--------4-5-4---------------------4-5-4--------------|
E|--5-5-5-------3--3-3--3-3---5-5-5-------3--3-3--3-3--|
B|-----------------------------------------------------|


Verse 4:
G|----------------------------------------|
D|----------------------------------------|
A|--3-2-0-2-----2-0--0--3-2-0-2-----0--0--|
E|----------0-2-----------------0-2-------|
B|----------------------------------------| (x4)


Bridge:
G|-------------------------------------------------------------|
D|-------------------------------------------------------------|
A|----0-----0-----0-----0-----0-----0-----0-----0-----0-----0--|
E|--3----3------3-----3-----3-----2----2------2-----2-----2----|
B|-------------------------------------------------------------|

G|------------------------------------------------------------|
D|------------------------------------------------------------|
A|----0-----0-----0-----0-----0-------------------------------|
E|--1----1------1-----1-----1-----0---5-0-0-5---5-4---4--4-4--|
B|------------------------------------------------------------|

G|-------------------------------------------------------------|
D|-------------------------------------------------------------|
A|----0-----0-----0-----0-----0-----0-----0-----0-----0-----0--|
E|--3----3------3-----3-----3-----2----2------2-----2-----2----|
B|-------------------------------------------------------------|

G|------------------------------------------------------------|
D|------------------------------------------------------------|
A|----0-----0-----0-----0-----0-------------------------------|
E|--1----1------1-----1-----1-----0---5-0-0-5---5-4---4--4-4--|
B|------------------------------------------------------------|


Outro:
G|------------------------------------------------------------------------------------|
D|------------------------------------------------------------------------------------|
A|--3---3------------------------------------3---3------------------------------------|
E|--------2-2--2-2-2--1---1-1-3-1---1-1-3--3-------2-2--2-2-2--1--1-1-3-1---1-1-3--3--|
B|------------------------------------------------------------------------------------|

G|--------------------------------------------|
D|--------------------------------------------|
A|--------------------------------------------|
E|--------2-2--2-2-2--1---1-1-3-1---1-1-3--3--|
B|--1---1-------------------------------------|

G|---------------------------------------------|
D|---------------------------------------------|
A|---------------------------------------------|
E|--------2--2---2-2--1---1---1--1-3---3-1-1~--|
B|--1---1--------------------------------------|