311 - Tribute Chords & Tabs

 

Tribute Chords & Tabs

311 Chords & Tabs

Version: 2 Type: Bass Tab 0 ratings
1 star 2 stars 3 stars 4 stars 5 stars
comments

Tribute Bass Tab

'Tribute' -- Bass Tab
Performed by 311
From the album/video "Enlarged to Show Detail" on Capricorn Records
Music by:  C. Sexton
Lyrics by:  N. Hexum & D. Martinez
(c) 1995 Allegiance Music/Hydroponic Music BMI
----------
Tabbed by: Jason Borgmann (starrdog@csd.uwm.edu)
The 311 Guitar Archive - http://chromosome.colorado.edu/311archive/Home.html


Well, here is the bass tab for "Tribute".  It is not that hard, it
basically follows the guitar.

Riff 1:
=======

1:---------------------------
2:------0-0-2-3-2-0-0--------
3:-------------------0-2-3-2-
4:-3-3-----------------------


Riff 2:
=======

1:----------------------------
2:----------------------------
3:----------------------------
4:-3-3----1----3-3----0-1-0-1-


Riff 3:
=======

1:------------------------------
2:------------------------------
3:-------5-6-5-----------5-6-5--
4:-6-6-6-------4---6-6-6------4-

1:-------------------------------
2:-------------------------------
3:-------4-5-4-----------4-5-4---
4:-5-5-5-------3---5-5-5-------3-


Riff 4:
=======
[ Tab from: http://www.guitartabs.cc/tabs/0-9/311/tribute_btab_ver_2.html ]
1:--------------------------------------
2:--------------------------------------
3:-3-2-0-2------2--0---3-2-0-2------0-0-
4:---------0-2-----------------0-2------


Riff 5:
=======

1:------------------------------
2:-----------------------------
3:---0-----0-----0-----0-----0-
4:-3----3------3-----3-----3---
 
1:-----------------------------
2:-----------------------------
3:---0-----0-----0-----0-----0-
4:-2----2------2-----2-----2---

1:------------------------------
2:------------------------------
3:---0-----0-----0-----0------0-
4:-1-----1-----1-----1------1---

1:-------------------------
2:-------------------------
3:-------------------------
4:-0-0-4-0-0-4-5-4---4-4-4-


Riff 6:
=======

1:------------------------
2:------------------------
3:------------------------
4:-3---2---1--3--1-1--3-3-


Ending (slows down):
====================

1:--------------------
2:--------------------
3:--------------------
4:-3---2---1---3--1-1-


Song Structure:
===============
Riff 1
Riff 2
Riff 3 
Riff 4 
Riff 5
Riff 1
Riff 2 
Riff 3
Riff 4
Riff 5
Riff 6
Ending

That's it, just listen to it a few times to catch the rhythms and how 
many times each riff is played...


== Last Updated:  July 14, 1997 ==
Comments