311 - Transistor Chords & Tabs

 

Transistor Chords & Tabs

311 Chords & Tabs

Version: 3 Type: Bass Tab 0 ratings
1 star 2 stars 3 stars 4 stars 5 stars
comments

Transistor Bass Tab

Song:Transistor
Band:311
Album:Transistor
Tabber:T4-TURBO

Note:I'm a little unsure about the end 'cause my cd skips all
through that part but thats how i allways played it when it worked.

Main:
g:----------------------------------------------------|
d:----------------------------------------------------|
a:----------------------------------------------------|
e:0-2-3-5-2-2--2-5-2-0-5--0-2-3-5-2-2--2-5-2-0-5-2-0-0|
b:----------------------------------------------------|

Riff2:
g:---------------------------------------------------------------|
d:---------------------------------------------------------------|
a:----------------------------------------------------------5-5-5|
e:5-2-0-5-2-0-0-0-5-2-0-5-2-0-0-0-5-2-0-5-2-0-0-0-5-2-0-2-5------|
b:---------------------------------------------------------------|
[ Tab from: http://www.guitartabs.cc/tabs/0-9/311/transistor_btab_ver_3.html ]
Riff 3:
g:------------------------------------------------|
d:------------------------------------------------|
a:------------------------------------------------|
e:7-0-0-0-0--0-0-5-3-1--5-5-5-7-0-0-0-0--0-0-5-3-1|
b:------------------------------------------------|

Riff 4:
g:-------------------------------|
d:-------------------------------|
a:------------------------(2-0-2)|
e:2-2-2-2-2-----2-2-2-2-2--7-5-7-|
b:----------4-2------------------|(same note differant string)

Riff 5:
g:---------------------------|
d:---------------------------|
a:-----------------------(2-0)
e:2-2-2-----2-2-2-----2-2-7-5|
b:------4-2-------4-2--------|

Riff 6:
g:---------------|
d:---------------|
a:3--------------|
e:----3-3-3-0-2-0|
b:--3------------|

End:
g:-------------------|
d:-------------------|
a:3-3----------------|
e:--------3-3-3-0-3-0|
b:----3-3------------|

Thats All Folkz
Comments