311 - Time Is Precious Chords & Tabs

 

Time Is Precious Chords & Tabs

311 Chords & Tabs

Version: 1 Type: Tab 0 ratings
1 star 2 stars 3 stars 4 stars 5 stars
comments

Time Is Precious Tab

This one is a b-side from Evolver. Its available on their website for free download.

e:------------------------------------------------|
B:------------------------------------------------|
G:------------------------------------------------|
D:----0-----0-----0-----0----0-----0-----0-----0--|
A:------------------------------------------------|
E:--1---1-1---1/3---3-3----1---1-1---1/3---3-3----|

Then it kinda goes like...
[ Tab from: http://www.guitartabs.cc/tabs/0-9/311/time_is_precious_tab.html ]
e:------------------------------------------------|
B:------------------------------------------------|
G:------------------------------------------------|
D:----5-----5-----5-----5----5-----5-----5-----5--|
A:------------------------------------------------|
E:--1---1-1---1/3---3-3----1---1-1---1/3---3-3----|

Gimme a little bit o' time and i'll try and get the rest- i have the heavy part(" from 
to recluse...") and parts of the chorus, but i don't want to give you guys something 
up. keep on keepin' on(lame joe dirt reference) and i'll try to get the rest in a couple days/weeks(?)
Peace!
Comments