311 - Theres Always An Excuse Chords & Tabs

 

Theres Always An Excuse Chords & Tabs

311 Chords & Tabs

Version: 1 Type: Tab 0 ratings
1 star 2 stars 3 stars 4 stars 5 stars
comments

Theres Always An Excuse Tab

   
“There’s Always an Excuse” by: 311

Music By: Nick Hexum, Tim Mahoney, Aaron Wills, Chad Sexton
Lyrics By: Nick Hexum

Tabbed by: Chris Gill
Email: CGill1403@aol.com

Tuning: E A D G B E

e|----------0-----------------0-----------------0-----------------0-----------|
B|--------7-----------------7-----------------5-----------------5-------------|
G|------0----------0------0----------0------0----------0------0---------------|
D|----7----------7------7----------7------5----------5------5----------5-5/7--|
A|--5----------5------5----------5------3----------3------3----------3---3/5--|
E|----------------------------------------------------------------------------|

e|---------------------------------------------------------------------------|
B|--x-x-x-x-7-7-x-x-x-x-x-x-7-7-x-x-x-x-x-x-7-7-x-x-x-x-x-x-7-7-x-x-x-x-x-x--|
G|--x-x-x-x-0-0-x-x-x-x-x-x-0-0-x-x-x-x-x-x-0-0-x-x-x-x-x-x-0-0-x-x-x-x-x-x--|
D|--x-x-x-x-7-7-x-x-x-x-x-x-7-7-x-x-x-x-x-x-7-7-x-x-x-x-x-x-7-7-x-x-x-x-x-x--| -> 
A|----------5-5-------------5-5-------------5-5-------------5-5--------------|
E|---------------------------------------------------------------------------|

e|----------------------------------------------------0--|
B|--5-5-x-x-x-x-x-x-5-5-x-x-x-x-x-x-5-5-x-x-x-x-x-x-5/7--|
G|--0-0-x-x-x-x-x-x-0-0-x-x-x-x-x-x-0-0-x-x-x-x-x-x-0/0--|
D|--5-5-x-x-x-x-x-x-5-5-x-x-x-x-x-x-5-5-x-x-x-x-x-x-5/7--|
A|--3-3-------------3-3-------------3-3-------------3/5--|
E|-------------------------------------------------------|

e|-------------------------------------------------------------------------------------|
B|-------------------------------------------------------------------------------------|
G|-------------------------------------------------------------------------------------|
D|-------------------------------------------------------------------------------------|
A|-3----3--3--3--5----5--5--5--3----3--3--3--5----7--5--3--3----7--5--3--2----7--5--3--|
E|-1----1--1--1--3----3--3--3--1----1--1--1--3----5--3--1--1----5--3--1--0----5--3--1--|

e|--------------------|
B|--------------------|
G|--------------------|
D|--------------------|
A|--2----5---10----9--|
E|--0----3----8----7--|
[ Tab from: http://www.guitartabs.cc/tabs/0-9/311/theres_always_an_excuse_tab.html ]
e|-----------------------------------|
B|-----------------------------------|
G|-----------------------------------|
D|------------------5-5-5-5-4-4-4-4--|
A|--2-2-2-2-5-5-5-5-3-3-3-3-2-2-2-2--|
E|--0-0-0-0-3-3-3-3------------------|
PM...................................

e|-----------------------------------|
B|-----------------------------------|
G|-----------------------------------|
D|-----------------------------------|
A|--7-7-7-7-5-5-5-5-3-3-3-3-2-2-2-2--|
E|--5-5-5-5-3-3-3-3-1-1-1-1-0-0-0-0--|
PM...................................

e|----------------|
B|---7--------5---| these two chords simulate the piano part of the song
G|---6--------4---| play them as needed
D|----------------|
A|----------------|
E|----------------|

e|-------------------------------0--0-----------------------------------------0--0--0-0-0-0-|
B|-------------------------------0--0-----------------------------------------0--0--0-0-0-0-|
G|-------------------------------0--0-----------------------------------------0--0--0-0-0-0-|
D|-/4------4-5-/7-5--4-----4-4\2----2---2-2-2-2/4------4-5-/7-5--4-----4-4\2-----2--2-2-2-2-|
A|-/5----5--------------5--5-5\3----3---3-3-3-3/5----5--------------5--5-5\3-----3--3-3-3-3-|
E|------------------------------------------------------------------------------------------|

e|-/0---0-0-0--0-0--0--0-0--0-0--0---0-0-0--0-0--0--0-0--0-0--|
B|-/7---7-7-7--7-7--7--7-7--7-7--5---5-5-5--5-5--5--5-5--5-5--|
G|-/0---0-0-0--0-0--0--0-0--0-0--0---0-0-0--0-0--0--0-0--0-0--|
D|-/7---7-7-7--7-7--7--7-7--7-7--5---5-5-5--5-5--5--5-5--5-5--|
A|-/5---5-5-5--5-5--5--5-5--5-5--3---3-3-3--3-3--3--3-3--3-3--|
E|------------------------------------------------------------|

I will update this tab when I have the solo figured out

The following 2 parts are the rhythm section of the solo
e|--3---3-3-3--3-3--3--3-3--3-3--0---0-0-0--0-0--0------------|
B|--0---0-0-0--0-0--0--0-0--0-0--0---0-0-0--0-0--0------------|
G|--0---0-0-0--0-0--0--0-0--0-0--0---0-0-0--0-0--0------------|
D|--0---0-0-0--0-0--0--0-0--0-0--2---2-2-2--2-2--2---2-2-2-2--|
A|--2---2-2-2--2-2--2--2-2--2-2--3---3-3-3--3-3--3---2-2-2-2--|
E|--3---3-3-3--3-3--3--3-3--3-3----------------------4-4-4-4--|

e|---------------------------------------|
B|---------------------------------------|
G|---------------------------------------|
D|--4--4-4-4---4--4-4-4---4--4-4-4----0--|
A|--4--4-4-4---4--4-4-4---4--4-4-4----2--|
E|--2--2-2-2---2--2-2-2---2--2-2-2----3--|




| /  slide up
| \  slide down
| h  hammer-on
| p  pull-off
| ~  vibrato
| +  harmonic
| x  Mute note
===============================================================================

Comments