311 - The Continuous Life Chords & Tabs

 

The Continuous Life Chords & Tabs

311 Chords & Tabs

Version: 2 Type: Bass Tab 0 ratings
1 star 2 stars 3 stars 4 stars 5 stars
comments

The Continuous Life Bass Tab

'The Continuous Life' -- Bass Tab
Performed by 311
From the album "Transistor" on Capricorn/Mercury Records
Music by:  C. Sexton
Lyrics by:  D. Martinez
(c) 1997 Hydroponic Music BMI
---------------
Tabbed by: Jeremy Daw (summit@rideau.net)
The 311 Guitar Archive -- http://chromosome.colorado.edu/311archive/Home.html


Riff 1:
=======

G:-8---------------9----8--------------0-
D:-9----8----9-----10---9----8----9----0-
A:------9----10--------------9----10-----
E:---------------------------------------
B:---------------------------------------


Riff 2:
=======

G:--------------------
D:--------------------
A:--------------------
E:-4--6-6---2--2--2-2-
B:--------------------


Riff 3:
=======
[ Tab from: http://www.guitartabs.cc/tabs/0-9/311/the_continuous_life_btab_ver_2.html ]
G:-----------------
D:-----------------
A:-----------------
E:-4-4---2---------
B:-----------5---4-


Bridge:
=======

G:------------------------------------------------
D:------------3-1----------3-1----------3-1-------
A:----------------3-1-3--------3-1-3--------3-1-3-
E:-4---2---1------------1------------1------------
B:------------------------------------------------

G:----------------------------------------------------------
D:----3-1------3-1------3-1-----------3-1---------3-1---3---
A:--------2-1------2-1------3-1-3---------3-1-3-------3---4-
E:-1------------------------------1-------------1-----------
B:----------------------------------------------------------


Ending:
=======

G:----------------
D:----------------
A:----------------
E:--------4-4-4-4-
B:-4--2-----------


== Last Updated:  September 25, 1997 ==
Comments