311 - Thank Your Lucky Stars Chords & Tabs

 

Thank Your Lucky Stars Chords & Tabs

311 Chords & Tabs

Version: 2 Type: Tab 0 ratings
1 star 2 stars 3 stars 4 stars 5 stars
comments

Thank Your Lucky Stars Tab

   
Band: 311
Title: Thank Your Lucky Stars
Album: Don't Tread on Me
Tabbed By: Arsenio
()=Harmonics

Aight heres da tab for a badass song. The Timing's kinda off, but with the right chords,
you can figure out how many times to strum them. Th Harmonics are tricky. I'm not sure
if the first harmonic part is right, but I know the second one is.
Enjoy!

Standard tuning

::Intro/Main Riff::

e-----------------|
b-----------------|
g-4444------------|
d-4444-7-9-7-22-4-|
a-2222-7-9-7-22-4-|
E-2222-5-7-5-00-2-|

::Riff 2::

e----------------|
b----------------|
g-----4-2--------|
d-77774-2-2-2224-|
a-77772-0-2-2224-|
E-5555----0-0002-|


::Chorus::

e-------------------|
b-------------------|
g-------------------|
d-6--6--6--8-999-44-|
a-4--6-------999-44-|
E-4--4-------777-22-|

::Breakdown::
[ Tab from: http://www.guitartabs.cc/tabs/0-9/311/thank_your_lucky_stars_tab_ver_2.html ]
e----------------------------------------------------|
b---------------------------(5)---------(5)----------|
g------------------------------(5)---------(5)-------|
d-44-4-2-4-2-4-222-44-4-2-4-------(5)---------(5)----|
a-44-2-2-2-2-4-222-44-4-2-4----------(5)---------(5)-|
E-22-2-0-2-0-2-000-22-2-0-2--------------------------|

e-------------------------------------------|
b-------------------------------------------|
g-------------------------------------------|
d-44-4-2-4----------------44-4-2-4----------|(5)
a-44-4-2-4----------------22-4-0-4----(7)---|
E-22-2-0-2--0-2-4-5-4-2-0-22-2-0-2--(7)-----|

::Riff 3::

e------------------|
g------------------|
b------------------|
d-2--7--9-10-10-10-|
a-2--7--9-10-10-10-|
E-0--5--7--8--8--8-|

::End::
e--------|
b--------|
g--------|
d-44-4-4-|
a-44-4-4-|
E-22-2-2-|

::Order::

1. Intro/Main Riff x12
2. Riff 2 x2
3. Intro/Main Riff x2
4. Riff 2 x2
5. Intro/ Main Riff x2
6. Chorus x4
7. Intro/Main Riff x10
8. Riff 2 x2
9. Intro/Main Riff x2
10. Riff 2 x2
11. Intro/Main x2
12. Chorus x4
13. Breakdown x2
14. Riff 3 x1
15. Chorus x4
16. End x1
Comments