311 - Taiyed Chords & Tabs

 

Taiyed Chords & Tabs

311 Chords & Tabs

Version: 3 Type: Bass Tab 0 ratings
1 star 2 stars 3 stars 4 stars 5 stars
comments

Taiyed Bass Tab

Song:Taiyed
Band:311
Album:Grass-Roots
Tabber:T4-TURBO

Main:
g:----4-2------------|
d:--4-----4-2--------|
a:2------------------|
e:------------0-5h6-5|
b:-------------------|

[ Tab from: http://www.guitartabs.cc/tabs/0-9/311/taiyed_btab_ver_3.html ]
2nd:
g:-----------------------|
d:-----------------------|
a:--------2-----0-5-6-5-6|
e:0-2-3-4---4-2----------|
b:-----------------------|

End:
g:-----|
d:-----|
a:-----|
e:--0--|
b:-----|
Comments