311 - Sunset In July Chords & Tabs

 

311 Chords & Tabs

Version: 1 Type: Tab 0 ratings
1 star 2 stars 3 stars 4 stars 5 stars
comments

Sunset In July Tab

   
Intro,Solo (x2)
e|-------------------------------------------------------------------------|
B|-/11---13-11-13/15\13-11---13-11-13-11---13-11-13/15\13-11-13/15\13-11---|
G|-------------------------------------------------------------------------|
D|-------------------------------------------------------------------------|
A|-------------------------------------------------------------------------|
E|-------------------------------------------------------------------------|

e|--------------------------------------------------------------------13-12|
B|10---10-11-10-11/13\11-10---11-10-11-10-11-10-11/13\11-10-11/13\11-10----|
G|--------------------------------------------------------------------------
D|--------------------------------------------------------------------------
A|--------------------------------------------------------------------------
E|--------------------------------------------------------------------------

Verse (x2)
e|-------------------------------------------------------------------------|
B|-------------------------------------------------------------------------|
G|-------------------------------------------------------------------------|
D|-5--555---5--555--3--333--3-333(/)---------------------------------------|
A|-5--555---5--555--3--333--3-333(/)---------------------------------------|
E|-3--333---3--555--3--333--3-333(/)---------------------------------------|
[ Tab from: http://www.guitartabs.cc/tabs/0-9/311/sunset_in_july_tab.html ]
Chorus (x2)
e|-------------------------------------------------------------------------|
B|-------------------------------------------------------------------------|
G|------------------------------7--777-7-777--3--333-3-333-----------------|
D|-\3--333-3-333--5--555-5-555--7--777-7-777--3--333-3-333-----------------|
A|-\3--333-3-333--3--333-3-333--5--555-5-555--1--111-1-111-----------------|
E|-\1--111-1-111--3--333-3-333--5--555-5-555--1--111-1-111-----------------|
Repeat the entire above sequence except solo is played only once

Bridge			   						       (x2)	
e|---------------------------|---------------------------------------------|
B|-66666---------------------|-66666---------------------------------------|
G|-77777-5-x555--33333-------|-77777-5-x555--3/5555------------------------|
D|-77777-5-x555--33333-3-x333|-77777-5-x555--3/5555-3-x333-----------------|
A|-55555-3-x333--11111-3-x333|-55555-3-x333--1/3333-3-x333-----------------|
E|-55555-3-x333--11111-1-x111|-55555-3-x333--1/3333-1-x111-----------------|

e|-------------------------------------------------------------------------|
B|-66666--------------------------------6----------------------------------|
G|-77777-3-x555-3-3-3-3-3-3-3-3-3---5---7----------------------------------|
D|-77777-5-x555-3-3-3-3-3-3-3-3-3---5---7---3-3-3-3-3-3-33-----------------|
A|-55555-3-x555-1-1-1-1-1-1-1-1-1---3---5---1-1-1-1-1-1-11-----------------|
E|-55555-3-x333-1-1-1-1-1-1-1-1-1---3---5---1-1-1-1-1-1-11-----------------|
-repeat chorus (x2 again)
-repeat chorus (x1 w/out finger mute)
-repeat solo (x2 again)
-repeat verse (x2 PM)
Outro (PM)
e|-------------------------------------------------------------------------|
B|-------------------------------------------------------------------------|
G|-------------------------------------------------------------------------|
D|-5-----------------------------------------------------------------------|
A|-5-----------------------------------------------------------------------|
E|-3-----------------------------------------------------------------------|
************************************

| /   slide up
| \   slide down
| h   hammer-on
| p   pull-off
| ~   vibrato
| +   harmonic
| x   Mute note
| b   Bend
| pb  Pre-bend
| br  Bend release
| pbr Pre-bend release
| brb Bend release bend
| PM  Palm Mute
| ()  Final sequence only
Comments