311 - Summer Of Love Chords & Tabs

 

Summer Of Love Chords & Tabs

311 Chords & Tabs

Version: 2 Type: Tab 0 ratings
1 star 2 stars 3 stars 4 stars 5 stars
comments

Summer Of Love Tab

Band:311	
Song:Summer of Love
(rare, unreleased)
Transcribed by:Tyler Sartin


INTRO AND CHORUS

E -----------------------------------------------------
B -----------------------------------------------------
G ---------------------7-7-7-7-7-7-7-7-----------------
D -4-4-4-4-4-4-4-4-----7-7-7-7-7-7-7-7-----------------     
A -4-4-4-4-4-4-4-4-----5-5-5-5-5-5-5-5-----------------
E -2-2-2-2-2-2-2-2-------------------------------------
[ Tab from: http://www.guitartabs.cc/tabs/0-9/311/summer_of_love_tab_ver_2.html ]
                     ____First Ending__   ___Second Ending____
E -------------------|-------------------|-----------------------
B -------------------|-------------------|-----------------------
G -------------------|--7-7-6-6-7-7-9-9--|---4--6--9-------------
D -4-4-4-4-4-4-4-4---|--7-7-6-6-7-7-9-9--|---4--6--9-------------
A -4-4-4-4-4-4-4-4---|--5-5-4-4-5-5-7-7--|---2--4--7-------------
E -2-2-2-2-2-2-2-2---|-------------------|-----------------------


VERSE (I think the verse is played on piano but I tabbed for guitar)

E -----------------------------
B -----------------------------
G -----------------------------
D -2----6--7-------------------
A -2----6--7-------------------
E -0----4--5-------------------

BRIDGE

E --9-9-9-9-9-9-9-11---------------
B --9-9-9-9-9-9-9-11---------------
G --9-9-9-9-9-9-9-11---------------
D ---------------------------------
A ---------------------------------
E ---------------------------------
Comments