311 - Strangers Chords & Tabs

 

Strangers Chords & Tabs

311 Chords & Tabs

Version: 3 Type: Bass Tab

Strangers Bass Tab

   
Artist: 311
Song: Strangers
Album: Transistor (1997)
Bassist: P-Nut
Tuning: B-E-A-D-G

Intro:
G|---------------------|
D|--7---7---7---7-9-7--|
A|---------------------|
E|---------------------|
B|---------------------|

Verse 1:
G|----------------------------------------------------------|
D|--9-9----7---7--9-9----7---7--9-9----7---7--9-9----7---7--|
A|-------9---9---------9---9---------9---9---------9---9----|
E|----------------------------------------------------------|
B|----------------------------------------------------------| (x4)

Chorus:
G|----------------------------------------------|
D|----------------------------------------------|
A|----------------------------------------------|
E|-----6----6------6---6------6---6------6---6--|
B|--4-----4-----4----4-----4----4-----4----4----|

Verse 2:
G|----------------------------------------------------------|
D|--9-9----7---7--9-9----7---7--9-9----7---7--9-9----7---7--|
A|-------9---9---------9---9---------9---9---------9---9----|
E|----------------------------------------------------------|
B|----------------------------------------------------------| (x3)

Chorus:
G|----------------------------------------------|
D|----------------------------------------------|
A|----------------------------------------------|
E|-----6----6------6---6------6---6------6---6--|
B|--4-----4-----4----4-----4----4-----4----4----|
[ Tab from: http://www.guitartabs.cc/tabs/0-9/311/strangers_btab_ver_3.html ]
Break:
G|-------------------------|
D|-------------------------|
A|-------------------------|
E|--5---5---5--5--5-5-7-5--|
B|-------------------------|

G|----------------------------------------------|
D|----------------------------------------------|
A|----------------------------------------------|
E|-----6----6------6---6------6---6------6---6--|
B|--4-----4-----4----4-----4----4-----4----4----|

G|-----------------------------------------------------|
D|-----------------------------------------------------|
A|-----------------------------------------------------|
E|--7-----7--7--7---7-7--7--7-----7--7--7---7-7--7--7--|
B|-----------------------------------------------------|

Verse 3:
G|----------------------------------------------------------|
D|--9-9----7---7--9-9----7---7--9-9----7---7--9-9----7---7--|
A|-------9---9---------9---9---------9---9---------9---9----|
E|----------------------------------------------------------|
B|----------------------------------------------------------|

Chorus:
G|----------------------------------------------|
D|----------------------------------------------|
A|----------------------------------------------|
E|-----6----6------6---6------6---6------6---6--|
B|--4-----4-----4----4-----4----4-----4----4----|

Outro:
G|-----------------------------|
D|-----------------------------|
A|-----------------------------|
E|--5---5---5--5--5-5-7-5--7~--|
B|-----------------------------|