311 - Starshines Chords & Tabs

 

Starshines Chords & Tabs

311 Chords & Tabs

Version: 3 Type: Bass Tab 0 ratings
1 star 2 stars 3 stars 4 stars 5 stars
comments

Starshines Bass Tab

   
Song:Starshines
Band:311
Album:Transistor
Tabber:T4-TURBO

The Other tab was perty close but its for a 4-string this is for
a 5-string.This is just the riffs u have to figure out the time.
Main:
G:-------|
D:-------|
A:-------|
E:1-1-1-4|
B:-------|
[ Tab from: http://www.guitartabs.cc/tabs/0-9/311/starshines_btab_ver_3.html ]
EVERY 4TH TIME
G:-----------------|
D:-----------------|
A:--------1H2-1----|
E:1-1-1-4-------4-1|
B:-----------------|

FILL:
G:----|
D:----|
A:----|
E:----|
B:3---|

CHORUS:
G:----------------------|
D:----------------------|
A:----------------------|
E:3-5-3---3-3--3-5-3---3|
B:------3------------3--|

BRIDGE:
G:-----------------------|
D:-----------------------|
A:-----------------------|
E:------------5-4--------|
B:5-3-5-3-5-3-----5-3-3-5|PAUSE EVERY 3RD TIME.
Comments