311 - Space Funk Chords & Tabs

 

Space Funk Chords & Tabs

311 Chords & Tabs

Version: 1 Type: Bass Tab 0 ratings
1 star 2 stars 3 stars 4 stars 5 stars
comments

Space Funk Bass Tab

   
Artist: 311
Song: Space Funk
Album: Transistor Outtake released 2003
Tuning: E-A-D-G



Main riff: Add variations, the mutes can be replaced with open A's
G|---------------------------------------------------------------|
D|--------------------2----2----2--------------------------------|
A|--2--x2-2-x2-x2--5-------------------------0-2--2-x2-2-x2-x2---|
E|----------------------0----0----2--2-3-4-5---------------------|
[ Tab from: http://www.guitartabs.cc/tabs/0-9/311/space_funk_btab.html ]
G|---------------------------------------------------------------|
D|--------------------2----2----2--------------------------------|
A|--2--x2-2-x2-x2--5-------------------------0-2--2-x2-2-x2-x2---|
E|----------------------0----0----2--2-3-4-5---------------------|

G|---------------------------------------------------------------|
D|--------------------2----2----2--------------------------------|
A|--2--x2-2-x2-x2--5-------------------------0-2--2-x2-2-x2-x2---|
E|----------------------0----0----2--2-3-4-5---------------------|
Comments