311 - Soulsucker Chords & Tabs

 

Soulsucker Chords & Tabs

311 Chords & Tabs

Version: 1 Type: Tab 0 ratings
1 star 2 stars 3 stars 4 stars 5 stars
comments

Soulsucker Tab

   
311 - Soulsucker
Tabbed By: Chris
EMail: pnutbutter311@netscape.net


** This song is in Dropped-D Tuning (Low E tuned down one step to D) 

  

  

Riff 1: 

======= 

C#dim Em C#dim Em7 Em C#dim 

1:----------------------------- 

2:-2-----0---2-----3---0---2-2- 

3:-0-----0---0-----0---0---0-0- 

4:-2-----2---2-----2---2---2-2- 

5:----------------------------- 

6:----------------------------- 

  

Riff 2: 

======= 

Am 

1:-5--5--------5--5---5--- 

2:-5----5------5----5---5- 

3:-5------5----5---------- 

4:-7--------7--7---------- 

5:------------------------ 

6:------------------------ 

  

Riff 3: 

======= 

F#m Bm 

1:-2--2--------2- 

2:-2----2------3- 

3:-2------2----4- 

4:-4--------4--4- 

5:-------------2- 

6:--------------- 

  

Fill 1: 

======= 

N.C. 

1:--------------- 

2:--------------- 

3:--------------- 

4:-------0-1-2--- 

5:-0-1-2--------- 

6:-------------2- 

  

Chorus 1: 

========= 

E5 F5 E5 D5 

1:---------------------------- 

2:---------------------------- 

3:---------------------------- 

4:-----2---2--3------2---2--0- 

5:-----2---2--3------2---2--0- 

6:-2-2-2-2-2--3--2-2-2-2-2--0- 

  

Chorus 2: 

========= 

A5 N.C. 

1:------------------------------- 

2:------------------------------- 

3:-------------------------5-6-7- 

4:-7--7--7--7--7--7--5-6-7------- 

5:-7--7--7--7--7--7-------------- 

6:-7--7--7--7--7--7-------------- 

  

Chorus 3: 

========= 

F#5 Bm 

1:---------------- 

2:--------------3- 

3:--------------4- 

4:-4-4-4-4-4-4--4- 

5:-4-4-4-4-4-4--2- 

6:-4-4-4-4-4-4---- 

  

Fill 2: 

======= 

E5 F5 N.C. 

1:----------------------------- 

2:----------------------------- 

3:----------------------------- 

4:-----2---2--3--------0-1-2--- 

5:-----2---2--3--0-1-2--------- 

6:-2-2-2-2-2--3--------------2- 

  

Bridge 1: 

========= 

E5 F5 E5 Bb5 E5 

1:---------------------- 

2:---------------------- 

3:----------------3---2- 

4:-2-2--3-3--2-2--3---2- 

5:-2-2--3-3--2-2--1---0- 

6:-2-2--3-3--2-2-------- 

  

Ending: 

======= 

N.C. E 

1:---------------------------------------------------- 

2:---------------------------------------------------- 

3:--------------------------------------------------1- 

4:-------------------------------------------0-1-2--2- 

5:-0-1-2-------0-1-2-------0-1-2-------0-1-2--------2- 

6:-------0-1-2-------0-1-2-------0-1-2--------------2- 

  

  

Lyrics/Song Structure: 

====================== 

---> Drum and Bass Intro 

---> Play Riff 1 (x2) 
[ Tab from: http://www.guitartabs.cc/tabs/0-9/311/soulsucker_tab.html ]
---> Play Riff 1 over: 

All through the scandal of a small town scene 

I always handled, you like to think my spirit is mean 

---> Play Riff 2 over: 

I thought you knew, thought you knew it was gonna be this way 

---> Play Riff 1 (x1) 

---> Play Riff 2 over: 

I guess I thought that, cause I told you nearly everyday 

---> Play Riff 1 (x1) 

---> Play Riff 3 over: 

And now you're tryin' to suck my soul 

---> Play Riff 1 (x1) 

---> Play Fill 1 (x1) 

---> Play Chorus 1 (x2) 

Whoa! 

---> Play Chorus 1 over: 

Well I'm sick of the chicks and sick of the bars 

I'm sick of this scene (?) (?) 

It's sad, yeah, it's getting me mad 

I'm tired of you, pulling on me 

It makes you look foolish and why can't you see 

That it's weak, just stand on your feet 

---> Play Chorus 2 over: 

Get your arms off my shoulders and get a little older, yeah 

---> Play Chorus 1 (x1) 

---> Play Chorus 2 over: 

The way you crash and crave makes you look like a leash to me 

---> Play Chorus 1 (x1) 

---> Play Chorus 3 over: 

But you cannot, cannot, suck my soul, no, no 

---> Play Fill 2 over: 

(Check it out!) 

---> Play Bridge 1 over: 

Well the soulsuckers must be, circumnavigated 

The soulsuckers must be, circumnavigated 

The soulsuckers must be, circumnavigated 

The soulsuckers must be, circumnavigated 

---> Play Fill 1 (x1) 

---> Play Riff 1 over: 

But I, promise you, I promise you, 

I will do what I want to, anyway 

You're out of luck, 'cause the souls that you suck 

Yield nothing so I say 

---> Play Riff 2 over: 

Make peace with me cause I'm sure that you'll see that it's 

---> Play Riff 1 over: 

No big deal to me 

---> Play Riff 2 over: 

I wish you the best move on and test without me 

---> Play Riff 1 over: 

Or someone like me 

---> Play Riff 3 over: 

Cause you cannot, suck my soul (uh-huh) 

---> Play Riff 1 (x1) 

---> Play Fill 1 (x1) 

---> Play Chorus 1 (x2) 

(Oh!) 

---> Play Chorus 1 over: 

Well, you know the type who always will try 

To clip your wings and make you not fly 

It's lame, it's always the same 

It's (a) human instinct, to criticize 

It takes mental dexterity to keep open eyes 

It's true, it happened to you 

---> Play Chorus 2 over: 

It's sad to be talkin' while others take a walk into the 

---> Play Chorus 1 over: 

Promised land 

---> Play Chorus 2 over: 

The way you crash and crave makes you look like a leash to me 

---> Play Chorus 1 (x1) 

---> Play Chorsu 3 over: 

But you cannot, cannot, suck my soul, no, no 

---> Play Fill 2 (x1) 

---> Play Bridge 1 over: 

Cause the soulsuckers must be, circumnavigated 

The soulsuckers must be, circumnavigated 

The soulsuckers must be, circumnavigated 

The soulsuckers must be, circumnavigated 

---> Play Fill 1 (x1) 

(Check it out!) 

---> Play Ending over: 

The soulsuckers-must-be-cir-cum-na-vi-ga-ted, yeaaah
Comments