311 - Solar Flare Chords & Tabs

 

Solar Flare Chords & Tabs

311 Chords & Tabs

Version: 1 Type: Tab 0 ratings
1 star 2 stars 3 stars 4 stars 5 stars
comments

Solar Flare Tab

   
“Solar Flare” by: 311

Tabbed by: Chris Gill
Email: CGill1403@aol.com

Music By: Nick Hexum, Tim Mahoney, Chad Sexton, Aaron Wills
Lyrics By: Nick Hexum, Doug Martinez

Tuning: E A D G B E

Tim does a pick slide before the bass intro begins

(break during bass intro)

e|---------------------------|
B|---------------------------|
G|---------------------------|
D|--4---7---4-----4---7---4--|
A|--2---5---2-----2---5---2--|
E|--2---5---2-----2---5---2--|

e|------------------------------------------------|
B|------------------------------------------------|
G|------------------------------------------------|
D|--4-----7---4--9--7-----4---4---7---4--9--7--4--| x3
A|--2-----5---2--7--5-----2---2---5---2--7--5--2--|
E|--2-----5---2--7--5-----2---2---5---2--7--5--2--|

e|-------------------------------------------------|
B|-------------------------------------------------|
G|-------------------------------------------------|
D|--4-----7---4--9--7-----4---7---4-----4---7---4--|
A|--2-----5---2--7--5-----2---5---2-----2---5---2--|
E|--2-----5---2--7--5-----2---5---2-----2---5---2--|

e|------------------------------------------------|
B|------------------------------------------------|
G|------------------------------------------------|
D|--4-----7---4--9--7-----4---4---7---4--9--7--4--| x3
A|--2-----5---2--7--5-----2---2---5---2--7--5--2--|
E|--2-----5---2--7--5-----2---2---5---2--7--5--2--|

e|------------------------------------------------|
B|------------------------------------------------|
G|------------------------------------------------|
D|--4-----7---4--9--7-----4---7---4----4---7---4--|
A|--2-----5---2--7--5-----2---5---2----2---5---2--|
E|--2-----5---2--7--5-----2---5---2----2---5---2--|

e|------------------------------------------------|
B|------------------------------------------------|
G|------------------------------------------------|
D|------------------------------------------------| x2
A|--2-----5---2--7--5-----2---2---5---2--7--5--2--|
E|------------------------------------------------|
w/ octaver

e|------------------------------------------------|
B|------------------------------------------------|
G|------------------------------------------------|
D|--4-----7---4--9--7-----4---4---7---4--9--7--4--|
A|--2-----5---2--7--5-----2---2---5---2--7--5--2--|
E|--2-----5---2--7--5-----2---2---5---2--7--5--2--|

e|-------------------------------------------------|
B|-------------------------------------------------|
G|-------------------------------------------------|
D|--4-----7---4--9--7-----4---7---4-----4---7---4--|
A|--2-----5---2--7--5-----2---5---2-----2---5---2--|
E|--2-----5---2--7--5-----2---5---2-----2---5---2--|

e|------------------------------------------------|
B|------------------------------------------------|
G|------------------------------------------------|
D|------------------------------------------------| x2
A|--2-----5---2--7--5-----2---2---5---2--7--5--2--|
E|------------------------------------------------|
w/ octaver

e|------------------------------------------------|
B|------------------------------------------------|
G|------------------------------------------------|
D|--4-----7---4--9--7-----4---4---7---4--9--7--4--|
A|--2-----5---2--7--5-----2---2---5---2--7--5--2--|
E|--2-----5---2--7--5-----2---2---5---2--7--5--2--|
[ Tab from: http://www.guitartabs.cc/tabs/0-9/311/solar_flare_tab.html ]
e|-------------------------------------------------|
B|-------------------------------------------------|
G|-------------------------------------------------|
D|--4-----7---4--9--7-----4---7---4-----4---7---4--|
A|--2-----5---2--7--5-----2---5---2-----2---5---2--|
E|--2-----5---2--7--5-----2---5---2-----2---5---2--|

e|---------------------------------------------------------------------------|
B|---------------------------------------------------------------------------|
G|---------------------------------------------------------------------------|
D|------------------------------------------------------9--------9-----9-----| x3
A|--5----5--5--5--5----4---4--4--3--3--3--3--2----2--2--7--2--2--7--2--7-----| 
E|--3----3--3--3--3----2---2--2--1--1--1--1--0----0--0-----0--0-----0--------|

e|-----------------------------------------------------------------------|
B|-----------------------------------------------------------------------|
G|-----------------------------------------------------------------------|
D|-----------------------------------------------------------------------|
A|--5----5--5--5--5----4---4--4--3--3--3--3--2----2--2----2---2----2--2--| 
E|--3----3--3--3--3----2---2--2--1--1--1--1--0----0--0----0---0----0--0--|

e|------------------------------------------------|
B|------------------------------------------------|
G|------------------------------------------------|
D|--4-----7---4--9--7-----4---4---7---4--9--7--4--| x3
A|--2-----5---2--7--5-----2---2---5---2--7--5--2--|
E|--2-----5---2--7--5-----2---2---5---2--7--5--2--|

e|-------------------------------------------------|
B|-------------------------------------------------|
G|-------------------------------------------------|
D|--4-----7---4--9--7-----4---7---4-----4---7---4--|
A|--2-----5---2--7--5-----2---5---2-----2---5---2--|
E|--2-----5---2--7--5-----2---5---2-----2---5---2--|

e|------------------------------------------------|
B|------------------------------------------------|
G|------------------------------------------------|
D|------------------------------------------------| x2
A|--4-----7---4--9--7-----4---4---7---4--9--7--4--|
E|------------------------------------------------|
w/ octaver

e|------------------------------------------------|
B|------------------------------------------------|
G|------------------------------------------------|
D|--4-----7---4--9--7-----4---4---7---4--9--7--4--|
A|--2-----5---2--7--5-----2---2---5---2--7--5--2--|
E|--2-----5---2--7--5-----2---2---5---2--7--5--2--|

e|-------------------------------------------------|
B|-------------------------------------------------|
G|-------------------------------------------------|
D|--4-----7---4--9--7-----4---7---4-----4---7---4--|
A|--2-----5---2--7--5-----2---5---2-----2---5---2--|
E|--2-----5---2--7--5-----2---5---2-----2---5---2--|

e|---------------------------------------------------------------------------|
B|---------------------------------------------------------------------------|
G|---------------------------------------------------------------------------|
D|------------------------------------------------------9--------9-----9-----| x3
A|--5----5--5--5--5----4---4--4--3--3--3--3--2----2--2--7--2--2--7--2--7-----| 
E|--3----3--3--3--3----2---2--2--1--1--1--1--0----0--0-----0--0-----0--------|

e|---------------------------------------------------------|
B|---------------------------------------------------------|
G|---------------------------------------------------------|
D|------------------------------------------------------2--|
A|--5----5--5--5--5----4---4--4--3--3--3--3--2----2--2--2--| 
E|--3----3--3--3--3----2---2--2--1--1--1--1--0----0--0--0--|


| /  slide up
| \  slide down
| h  hammer-on
| p  pull-off
| ~  vibrato
| +  harmonic
| x  Mute note
===============================================================================

Comments